Song name
# A B C D E F G H I J K L M N O P Q R S T U V W X Y Z

Misc Unsigned Bands - Antagonist - The Birth Of Tragedy tab

The Birth Of Tradegy by Antagonist

Drop C

Intro 0:00 - 0:17
|-----------------------------------|
|-----------------------------------|
|-----------------------------------|
|-----------------------------------|
|------5---4-----------5---4--------|
|--333---3---3-6-3-5-3---3---3-5h6--|
PM ...   .   .   .   .   .   .

|-----------------------------------|
|-----------------------------------|
|-----------------------------------|
|-----------------------------------|
|------5---4-----------5---4--------|
|--333---3---3-6-3-5-3---3---3-5h6--|
PM ...   .   .   .   .   .   .


|-----------------------------------|
|-----------------------------------|
|-----------------------------------|
|-----------------------------------|
|------5---7---4---8---7--7-8-10-8--|
|--000---0---0---0---0--------------|
PM ...   .   .   .   .

|----------------------------------|
|----------------------------------|
|----------------------------------|
|------------------------7---------|
|------5---7---4---8---7---10-7h8--|
|--000---0---0---0---0-------------|
PM ...   .   .   .   .


Fill 0:17 - 0:19
|-------------------------|
|-------------------------|
|-------------------------|
|------3-----5-----3-5-6--|
|------3-----5-----3-5-6--|
|--000-3-000-5-000-3-5-6--|
PM ...   ...   ...

Verse 0:19 - 0:37
|----------------------------------------------------------------------------|
|----------------------------------------------------------------------------|
|----------------------------------------------------------------------------|
|--0------------3-5-6------------3-5-6------------3-5-6-----1-----1-----1h3--|
|--0-0000000000-3-5-6-0000000000-3-5-6-0000000000-3-5-6-000-1-000-1-000-1h3--|
|--0-0000000000-3-5-6-0000000000-3-5-6-0000000000-3-5-6-000-1-000-1-000-1h3--|
PM   ..........       ..........       ..........       ...   ...   ...

Chorus 0:37 - 0:54
|--------------------------------------------------|
|--------------------------------------------------|
|--------------------------------------------------|
|--0-----------------------0-----------------------|
|--0-0000000000-------4----0-0000000000-------5----|
|--0-0000000000-1-1-1---3--0-0000000000-3-3-3---4--|
PM   ..........              .......... 

Intro 0:55 - 1:13

Fill 1:14 - 1:16

Verse 1:16 - 1:34

Chorus 1:34 - 1:51

|-----|
|-----|
|-----|
|--0~-|
|--0~-|
|--0~-|

Mid-break 1:56 - 2:08 (One Guitar Only)
|---------------------------------------------------------------------------|
|--------------------------16-16---16---------------16-16-------16-16---16~-|
|--------------------------19-19---19---------------19-19-------19-19---19~-|
|--0-------------0-0------------------0-------------------------------------|
|--0-0-000-0-0-0-0-0-0-000-------0----0-0-000-0-0-0-------0-000-------0-----|
|--0-0-000-0-0-0-0-0-0-000-------0----0-0-000-0-0-0-------0-000-------0-----|
PM   . ... . . .     . ...       .      . ... . . .       . ...       .

Breakdown 2:09 - 2:26
|---------------------------------------------------------------------------|
|--------------------------16-16---16---------------16-16-------16-16---16--|
|--------------------------19-19---19---------------19-19-------19-19---19--|
|--0-------------0-0------------------0-------------------------------------|
|--0-0-000-0-0-0-0-0-0-000-------0----0-0-000-0-0-0-------0-000-------0-----|
|--0-0-000-0-0-0-0-0-0-000-------0----0-0-000-0-0-0-------0-000-------0-----|
PM   . ... . . .     . ...       .      . ... . . .       . ...       .

Outro 2:26 - 2:44
|----------------------------------------------------------------------------|
|----------------------------------------------------------------------------|
|----------------------------------------------------------------------------|
|--0-------------0-0--------1-1-----1--0--------------1-1---------1-1-----1--|
|--0-0-000-0-0-0-0-0-0-000--1-1--0--1--0-0-000-0-0-0--1-1--0-000--1-1--0--1--|
|--0-0-000-0-0-0-0-0-0-000--1-1--0--1--0-0-000-0-0-0--1-1--0-000--1-1--0--1--|
PM   . ... . . .     . ...       .       . ... . . .       . ...       .

End
|-----|
|-----|
|-----|
|--0~-|
|--0~-|
|--0~-|

Tap to rate this tab
# A B C D E F G H I J K L M N O P Q R S T U V W X Y Z