Song name
# A B C D E F G H I J K L M N O P Q R S T U V W X Y Z

Misc Unsigned Bands - Right To Remain - Powerstruck tab

Help us improve GuitareTab! Take a short survey!
Intro

Guitar I

   T    T    T   T    T    T    T    T
D|--------------------------------------------------------------------------|
A|--------------------------------------------------------------------------|
F|-12p7-11p7-9p7-11p7-12p7-11p7-12p7-11p7---x13-----------------------------|
C|--------------------------------------------------------------------------|
G|--------------------------------------------------------------------------|
C|--------------------------------------------------------------------------|

Guitar II

D|--------------------------------------------------------------------------|
A|--------------------------------------------------------------------------|
F|--------------------------------------------------------------------------|
C|-5-5-5-5-5-5-5-5--7-7-7-7-7-7-7-7--9-9-9-9-9-9-9-9--5-5-5-5-5-5-5-5-------|
G|-3-3-3-3-3-3-3-3--5-5-5-5-5-5-5-5--7-7-7-7-7-7-7-7--3-3-3-3-3-3-3-3-------|
C|--------------------------------------------------------------------------|

D|--------------------------------------------------------------------------|
A|--------------------------------------------------------------------------|
F|--------------------------------------------------------------------------|
C|-4-4-4-4-4-4-4-4-----x3---------------------------------------------------|
G|-2-2-2-2-2-2-2-2----------------------------------------------------------|
C|--------------------------------------------------------------------------|

Pre Chorus

Guitar I

D|--------------------------------------------------------------------------|
A|--------------------------------------------------------------------------|
F|--------------------------------------------------------------------------|
C|-5-4-0-5-4-0-5-4-0-5-4-0--------------------------------------------------|
G|--------------------------------------------------------------------------|
C|--------------------------------------------------------------------------|

Chorus

Guitars I & II

D|--------------------------------------------------------------------------|
A|--------------------------------------------------------------------------|
F|--------------------------------------------------------------------------|
C|-12-12-12-12-12-12-12-12-12-12-12---7-7-7-7-7-7-7-7-7-7-7-----------------|
G|-10-10-10-10-10-10-10-10-10-10-10---5-5-5-5-5-5-5-5-5-5-5-----------------|
C|-10-10-10-10-10-10-10-10-10-10-10---5-5-5-5-5-5-5-5-5-5-5-----------------|
      x  x     x     x  x  x          x x   x   x x x

D|--------------------------------------------------------------------------|
A|--------------------------------------------------------------------------|
F|--------------------------------------------------------------------------|
C|-5-5-5-5-5-5-5-5-5-5-5--5-4-0-5-4-0-5-4-0-5-4-0---x2----------------------|
G|-3-3-3-3-3-3-3-3-3-3-3----------------------------------------------------|
C|-3-3-3-3-3-3-3-3-3-3-3----------------------------------------------------|
     x x   x   x x x

Second Verse

Guitar I

   T    T    T   T    T    T    T    T
D|---------------------------------------------------------------------------|
A|---------------------------------------------------------------------------|
F|-12p7-11p7-9p7-11p7-12p7-11p7-12p7-11p7---x5-------------------------------|
C|---------------------------------------------------------------------------|
G|---------------------------------------------------------------------------|
C|---------------------------------------------------------------------------|

Guitar II

D|--------------------------------------------------------------------------|
A|--------------------------------------------------------------------------|
F|--------------------------------------------------------------------------|
C|-5-5-5-5-5-5-5-5--7-7-7-7-7-7-7-7--9-9-9-9-9-9-9-9--5-5-5-5-5-5-5-5-------|
G|-3-3-3-3-3-3-3-3--5-5-5-5-5-5-5-5--7-7-7-7-7-7-7-7--3-3-3-3-3-3-3-3-------|
C|--------------------------------------------------------------------------|

D|--------------------------------------------------------------------------|
A|--------------------------------------------------------------------------|
F|--------------------------------------------------------------------------|
C|-4-4-4-4-4-4-4-4--5-5-5-5-5-5-5-5--7-7-7-7-7-7-7-7--9---------------------|
G|-2-2-2-2-2-2-2-2--3-3-3-3-3-3-3-3--5-5-5-5-5-5-5-5--7---------------------|
C|--------------------------------------------------------------------------|

Pre Chorus

Guitar I

D|--------------------------------------------------------------------------|
A|--------------------------------------------------------------------------|
F|--------------------------------------------------------------------------|
C|-5-4-0-5-4-0-5-4-0-5-4-0--------------------------------------------------|
G|--------------------------------------------------------------------------|
C|--------------------------------------------------------------------------|

Chorus

Guitars I & II

D|--------------------------------------------------------------------------|
A|--------------------------------------------------------------------------|
F|--------------------------------------------------------------------------|
C|-12-12-12-12-12-12-12-12-12-12-12---7-7-7-7-7-7-7-7-7-7-7-----------------|
G|-10-10-10-10-10-10-10-10-10-10-10---5-5-5-5-5-5-5-5-5-5-5-----------------|
C|-10-10-10-10-10-10-10-10-10-10-10---5-5-5-5-5-5-5-5-5-5-5-----------------|
      x  x     x     x  x  x          x x   x   x x x

D|--------------------------------------------------------------------------|
A|--------------------------------------------------------------------------|
F|--------------------------------------------------------------------------|
C|-5-5-5-5-5-5-5-5-5-5-5--5-4-0-5-4-0-5-4-0-5-4-0---x4----------------------|
G|-3-3-3-3-3-3-3-3-3-3-3----------------------------------------------------|
C|-3-3-3-3-3-3-3-3-3-3-3----------------------------------------------------|
     x x   x   x x x

Third Verse

Guitar I

   T    T    T   T    T    T    T    T
D|---------------------------------------------------------------------------|
A|---------------------------------------------------------------------------|
F|-12p7-11p7-9p7-11p7-12p7-11p7-12p7-11p7---x5-------------------------------|
C|---------------------------------------------------------------------------|
G|---------------------------------------------------------------------------|
C|---------------------------------------------------------------------------|

Guitar II

D|--------------------------------------------------------------------------|
A|--------------------------------------------------------------------------|
F|-----5-----5-----5-----5-----7-----7-----7-----7-----9-----9-----9-----9--|
C|---5-----5-----5-----5-----7-----7-----7-----7-----9-----9-----9-----9----|
G|-3-----3-----3-----3-----5-----5-----5-----5-----7-----7-----7-----7------|
C|--------------------------------------------------------------------------|

D|--------------------------------------------------------------------------|
A|--------------------------------------------------------------------------|
F|-----5-----5-----5-----5-----4-----4-----4-----4-----5-----5-----5-----5--|
C|---5-----5-----5-----5-----4-----4-----4-----4-----5-----5-----5-----5----|
G|-3-----3-----3-----3-----2-----2-----2-----2-----3-----3-----3-----3------|
C|--------------------------------------------------------------------------|

D|--------------------------------------------------------------------------|
A|--------------------------------------------------------------------------|
F|-----7-----7-----7-----7--------------------------------------------------|
C|---7-----7-----7-----7---9-9-9-9-9-9-9-9-9-9-9-9-9-9-9-9------------------|
G|-5-----5-----5-----5-----7-7-7-7-7-7-7-7-7-7-7-7-7-7-7-7------------------|
C|--------------------------------------------------------------------------|
                           x x x x x x x x

Solos

Guitar II

D|--------------------------------------------------------------------------|
A|--------------------------------------------------------------------------|
F|--------------------------------------------------------------------------|
C|-12-12-12-12-12-12-12-12-12-12-12---7-7-7-7-7-7-7-7-7-7-7-----------------|
G|-10-10-10-10-10-10-10-10-10-10-10---5-5-5-5-5-5-5-5-5-5-5-----------------|
C|-10-10-10-10-10-10-10-10-10-10-10---5-5-5-5-5-5-5-5-5-5-5-----------------|
      x  x     x     x  x  x          x x   x   x x x

D|--------------------------------------------------------------------------|
A|--------------------------------------------------------------------------|
F|--------------------------------------------------------------------------|
C|-5-5-5-5-5-5-5-5-5-5-5--7-5-4-5-------------------------------------------|
G|-3-3-3-3-3-3-3-3-3-3-3--5-3-2-3---x2--------------------------------------|
C|-3-3-3-3-3-3-3-3-3-3-3--5-3-2-3-------------------------------------------|
     x x   x   x x x

Guitar I

D|--------------------------------------------------------------------------|
A|--------------------------------------------------------------------------|
F|----Guitar solo I not tabbed yet------------------------------------------|
C|--------------------------------------------------------------------------|
G|--------------------------------------------------------------------------|
C|--------------------------------------------------------------------------|

D|--------------------------------------------------------------------------|
A|--------------------------------------------------------------------------|
F|--------------------------------------------------------------------------|
C|--------------------------------------------------------------------------|
G|--------------------------------------------------------------------------|
C|--------------------------------------------------------------------------|

D|--------------------------------------------------------------------------|
A|--------------------------------------------------------------------------|
F|--------------------------------------------------------------------------|
C|--------------------------------------------------------------------------|
G|--------------------------------------------------------------------------|
C|--------------------------------------------------------------------------|

D|--------------------------------------------------------------------------|
A|--------------------------------------------------------------------------|
F|--------------------------------------------------------------------------|
C|--------------------------------------------------------------------------|
G|--------------------------------------------------------------------------|
C|--------------------------------------------------------------------------|

Guitar I

D|--------------------------------------------------------------------------|
A|--------------------------------------------------------------------------|
F|--------------------------------------------------------------------------|
C|-12-12-12-12-12-12-12-12-12-12-12---7-7-7-7-7-7-7-7-7-7-7-----------------|
G|-10-10-10-10-10-10-10-10-10-10-10---5-5-5-5-5-5-5-5-5-5-5-----------------|
C|-10-10-10-10-10-10-10-10-10-10-10---5-5-5-5-5-5-5-5-5-5-5-----------------|
      x  x     x     x  x  x          x x   x   x x x

D|--------------------------------------------------------------------------|
A|--------------------------------------------------------------------------|
F|--------------------------------------------------------------------------|
C|-5-5-5-5-5-5-5-5-5-5-5--7-5-4-5-------------------------------------------|
G|-3-3-3-3-3-3-3-3-3-3-3--5-3-2-3---x2--------------------------------------|
C|-3-3-3-3-3-3-3-3-3-3-3--5-3-2-3-------------------------------------------|
     x x   x   x x x

Guitar II

D|---------------------------------------------------9-11s15-15b-r-15~~-15--|
A|---------------------------------------------10-12------------------------|
F|----------------------------------------9-11------------------------------|
C|-11-9-9-7-11-9-9-7-7-7-12-11-9-9-7-9-11-----------------------------------|
G|--------------------------------------------------------------------------|
C|--------------------------------------------------------------------------|

                                T        T        T        T
D|-13---------------------13-15-17-15-12-17-15-12-17-15-12-17-15-12---------|
A|----15-15~~-15-15-13-15---------------------------------------------------|
F|--------------------------------------------------------------------------|
C|--------------------------------------------------------------------------|
G|--------------------------------------------------------------------------|
C|--------------------------------------------------------------------------|

   T        T        T        T        T        T        T        T
D|-19-15-12-19-15-12-19-15-12-19-15-12-20-15-12-20-15-12-19-15-12-19-15-12--|
A|--------------------------------------------------------------------------|
F|--------------------------------------------------------------------------|
C|--------------------------------------------------------------------------|
G|--------------------------------------------------------------------------|
C|--------------------------------------------------------------------------|

D|-17~~~~~~~----------------------------------------------------------------|
A|--------------------------------------------------------------------------|
F|--------------------------------------------------------------------------|
C|--------------------------------------------------------------------------|
G|--------------------------------------------------------------------------|
C|--------------------------------------------------------------------------|

Pre Chorus

Bass

G|--------------------------------------------------------------------------|
D|--------------------------------------------------------------------------|
A|--------------------------------------------------------------------------|
E|-10-10-10-10-10-10-10-10-10-10-10-5-5-5-5-5-5-5-5-5-5-5-------------------|

G|--------------------------------------------------------------------------|
D|--------------------------------------------------------------------------|
A|--------------------------------------------------------------------------|
E|-3-3-3-3-3-3-3-3-3-3-3----------------------------------------------------|

Guitars I & II

D|--------------------------------------------------------------------------|
A|--------------------------------------------------------------------------|
F|--------------------------------------------------------------------------|
C|-5-4-0-5-4-0-5-4-0-5-4-0--------------------------------------------------|
G|--------------------------------------------------------------------------|
C|--------------------------------------------------------------------------|

Chorus

Guitars I & II

D|--------------------------------------------------------------------------|
A|--------------------------------------------------------------------------|
F|--------------------------------------------------------------------------|
C|-12-12-12-12-12-12-12-12-12-12-12---7-7-7-7-7-7-7-7-7-7-7-----------------|
G|-10-10-10-10-10-10-10-10-10-10-10---5-5-5-5-5-5-5-5-5-5-5-----------------|
C|-10-10-10-10-10-10-10-10-10-10-10---5-5-5-5-5-5-5-5-5-5-5-----------------|
      x  x     x     x  x  x          x x   x   x x x

D|--------------------------------------------------------------------------|
A|--------------------------------------------------------------------------|
F|--------------------------------------------------------------------------|
C|-5-5-5-5-5-5-5-5-5-5-5--5-4-0-5-4-0-5-4-0-5-4-0---x3----------------------|
G|-3-3-3-3-3-3-3-3-3-3-3----------------------------------------------------|
C|-3-3-3-3-3-3-3-3-3-3-3----------------------------------------------------|
     x x   x   x x x

Guitars I & II

D|--------------------------------------------------------------------------|
A|--------------------------------------------------------------------------|
F|--------------------------------------------------------------------------|
C|-12-12-12-12-12-12-12-12-12-12-12---7-7-7-7-7-7-7-7-7-7-7-----------------|
G|-10-10-10-10-10-10-10-10-10-10-10---5-5-5-5-5-5-5-5-5-5-5-----------------|
C|-10-10-10-10-10-10-10-10-10-10-10---5-5-5-5-5-5-5-5-5-5-5-----------------|
      x  x     x     x  x  x          x x   x   x x x

D|--------------------------------------------------------------------------|
A|--------------------------------------------------------------------------|
F|--------------------------------------------------------------------------|
C|-5-5-5-5-5-5-5-5-5-5-5----------------------------------------------------|
G|-3-3-3-3-3-3-3-3-3-3-3----------------------------------------------------|
C|-3-3-3-3-3-3-3-3-3-3-3----------------------------------------------------|
     x x   x   x x x

Guitars I & II

D|--------------------------------------------------------------------------|
A|--------------------------------------------------------------------------|
F|--------------------------------------------------------------------------|
C|-5-4-0-5-4-0-5-4-0-5-4-0-----Gradually Fade Out---------------------------|
G|--------------------------------------------------------------------------|
C|--------------------------------------------------------------------------|

Tabbed By Rik Winter (Guitar II From Right To Remain)

/ Slide Up
~ Vibrato
b Bend
Related for Right To Remain - Powerstruck tab