Guitaretab - guitar tabs
Song name
# A B C D E F G H I J K L M N O P Q R S T U V W X Y Z

Misc Unsigned Bands - Los Pervertidos - Eres Un Depravado Chavo tab

Intro: w/ sound efx

e-----------------------------------------------------------------|
b-----------------------------------------------------------------|
g-----------------------------------------------------------------|
d-----------------------------------------------------------------|
a-----------------------------------------------------------------|
e-0---------------------------------------------------------------|

Riff A:

e-----------------------------------------------------------------|
b-----------------------------------------------------------------|
g-----------------------------------------------------------------|
d---------8-9-8-----8-7-----7-6-------------8-9-8-----8-7-----7-6-|
a-------7---------9-------8---------------7---------9-------8-----|
e-0-0-0-----------------------------0-0-0-------------------------|

2 Gtrs

e-----------------------------------------------------------------|
b-----------------------------------------------------------------|
g---------8-9-8-----8-7-----7-6-------------8-9-8-----8-7-----7-6-|
d-------7-8-9-8---9-8-7-----7-6-----------7-8-9-8---9-8-7---8-7-6-|
a-------7---------9-------8---------------7---------9-------8-----|
e-0-0-0-----------------------------0-0-0-------------------------|

Both Gtrs

e-----------------------------------------------------------------|
b-----------------------------------------------------------------|
g-----------------------------------------------------------------|
d-----------------------------------------------------------------|
a-----------------------------------------------------------------|
e-0-0--0--0-0--0--0-0--0--0-0--0--0-0--0--0-0--0--0-0--0--0-0--0--|


e-----------------------------------------------------------------|
b-----------------------------------------------------------------|
g-----------------------------------------------------------------|
d---------------------------------------------3--2----------------|
a------------------------------------------4--------3--2----------|
e-0-0--0--0-0--0--0-0--0--0-0--0--0--2--4-------------------------|

Really fuckiní fast

x2
e-----------------------------------------------------------------|
b-----------------------------------------------------------------|
g-----------------------------------------------------------------|
d-----------------------------------------------------------------|
a-----------------------------------------------------------------|
e-5-3-2-0-6-5-3-0-5-3-2-0-6-5-3-0-5-3-2-0-6-5-3-0-5-3-2-0-6-5-3-0-|

x3
e-----------------------------------------------------------------|
b-----------------------------------------------------------------|
g-----------------------------------------------------------------|
d--------------------------------------------------3--------------|
a--------------------------------------------------1--------------|
e-5-3-2-0-6-5-3-0-5-3-2-0-6-5-3-0-5-3-2-0-6-5-3-0-----------------|

e-----------------------------------------------------------------|
b-----------------------------------------------------------------|
g-----------------------------------------------------------------|
d-----------------------------------------------------------------|
a--------------------------------------------------5----8---------|
e-5-3-2-0-6-5-3-0-5-3-2-0-6-5-3-0-5-3-2-0-6-5-3-0--3----6---------|

Verses:
[ Tab from: http://www.guitaretab.com/m/misc-unsigned-bands/114144.html ]
e-----------------------------------------------------------------|
b-----------------------------------------------------------------|
g-----------------------------------------------------------------|
d-----------------------------------------------------------------|
a---------------10--14--13-------------------9--9--12-------------|
e-0---0-0--0--0--8--12--11----0---0-0--0--0--7--7--10-------------|

Interlude:

e-----------------------------------------------------------------|
b-----------------------------------------------------------------|
g-----------------------------------------------------------------|
d----------------------------------------8-7--88888888888888------|
a--------------7h10p8p7-8----------7--10------66666666666666--7-7-|
e-0--0--0--0---------------0--0--0----------------------------5-5-|

Bridge:

e-----------------------------------------------------------------|
b-----------------------------------------------------------------|
g-----------------------------------------------------------------|
d-----------------------------------------------------------------|
a-2-2----2-2----2-2----2-2----2-2----2-2----2-2----2-2----2-2-----|
e-0-0----0-0----0-0----0-0----0-0----0-0----0-0----0-0----0-0-----|

Riff over bridge:

e-----------------------------------------------------------------|
b-----------------------------------------------------------------|
g-----------------------------------------------------------------|
d--------9---------8---------7------------------------------------|
a---7-10------7-10------7-10------7-10-9--------------------------|
e-7---------7---------7---------7---------------------------------|

Chorus:

e-----------------------------------------------------------------|
b-----------------------------------------------------------------|
g-----------------------------------------------------------------|
d-----------------------------------------------------------------|
a-----5-9-----5-8-----5-7-----5-4-----5-9-----5-8-----5-7-----5-4-|
e-0-0-3-7-0-0-3-6-0-0-3-5-0-0-3-2-0-0-3-7-0-0-3-6-0-0-3-5-0-0-3-2-|

...blood!...

x2
e-----------------------------------------------------------------|
b-----------------------------------------------------------------|
g-----------------------------------------------------------------|
d-----------------------------------------------------------------|
a-----------------------------------------------------------------|
e-0-0-0-0-0-0-0-0-0-0-0-0-0-0-0-0-0-0-0-0-0-0-0-0-0-0-0-0-0-0-0-0-|

Outro: pm

x2
e-----------------------------------------------------------------|
b-----------------------------------------------------------------|
g-----------------------------------------------------------------|
d-----------------------------------------------------------------|
a-----------------------------------------------------------------|
e-0-0-0-0-1-1-7-7-6-6-6-3-3-3-3-3-0-0-0-0-1-1-7-7-6-6-6-3-3-3-3-3-|

e-----------------------------------------------------------------|
b-----------------------------------------------------------------|
g-----------------------------------------------------------------|
d-----------------------------------------------------------------|
a-----------------------------------------------------------------|
e-4-4-4-4-4-4-8-8-7-7-7-7-7-7-8-8-4-4-4-4-4-4-8-8-7-7-7-7-7-7-8-8-|

e-----------------------------------------------------------------|
b-----------------------------------------------------------------|
g-----------------------------------------------------------------|
d-----------------------------------------------------------------|
a-----------------------------------------------------------------|
e-0-0-0-0-1-1-7-7-6-6-6-3-3-3-3-3-0-0-0-0-1-1-7-7-6-6-6-3-3-3-3-3-|

e-----------------------------------------------------------------|
b-----------------------------------------------------------------|
g-----------------------------------------------------------------|
d-----------------------------------------------------------------|
a-----------------------------------------------------------------|
e-0-0-0-0-0-0-0-0-0-0-0-0-0-0-0-0-0-0-0-0-0-0-0-0-0-0-0-0-0-0-0-0-|
Related for Los Pervertidos - Eres Un Depravado Chavo tab