Song name
# A B C D E F G H I J K L M N O P Q R S T U V W X Y Z

Misc Unsigned Bands - Broan Hander - Pirate tab

Intro(quietly fades in)

C                        Em
|------------------------|--------------------------|
|----------1-------------|----------0---------------|
|-------0--------0-----0-|-------0--------0-----0---|
|----2--------------2----|----2--------------2------|
|-3----------------------|-2------------------------|
|------------------------|--------------------------|
Dsus2                    G
|------------------------|--------------------------|
|----------3-------------|----------0---------------|
|-------0--------0-----0-|----------------0-----0---|
|----2--------------2----|-------0-----------0------|
|-0----------------------|----2---------------------|
|------------------------|-3------------------------|

After the intro you play these chords listen to the song to figure out how it gos if you 
find the song go to www.myspace.com/broanhander

Heres the chords
Em     Em    Am     G
|0-----0-----0------3------|
|0-----0-----1------0------|
|0-----0-----2------0------|
|2-----2-----2------0------|
|2-----2-----0------2------|
|0-----0------------3------|

C                        Em
|------------------------|--------------------------|
|----------1-------------|----------0---------------|
|-------0--------0-----0-|-------0--------0-----0---|
|----2--------------2----|----2--------------2------|
|-3----------------------|-2------------------------|
|------------------------|--------------------------|
Dsus2                    G
|------------------------|--------------------------|
|----------3-------------|----------0---------------|
|-------0--------0-----0-|----------------0-----0---|
|----2--------------2----|-------0-----------0------|
|-0----------------------|----2---------------------|
|------------------------|-3------------------------|

This time hold the last few notes out longer
Tap to rate this tab
# A B C D E F G H I J K L M N O P Q R S T U V W X Y Z