Guitaretab - guitar tabs
Song name
# A B C D E F G H I J K L M N O P Q R S T U V W X Y Z

Misc Unsigned Bands - Blog 27 - Zabiore Cie tab

E:---------------------------------------------------------12-----------------------------12b14b12|
B:-------------------------------------------------------------12-12------------------------------|
G:------------------------------------------------9-9-9-----------11b13b11-9-11-------------------|
D:-------------------------------------9-9-9/11--------------------------------------9------------|
A:--4-7-4-4/7-7-4------4-7-4-4/7------------------------------------------------------------------|
E:7-----------------7--7--------------------------------------------------------------------------|
[ Tab from: http://www.guitaretab.com/m/misc-unsigned-bands/114180.html ]
E:--12p9--------------------------------------------------------------------12-11------------|
B:--------12p9-12p9----12p9---12p9--------------------------------------------12----12-109--|
G:---------------------11-------11------11-9-11-9-11b13b11-9-11---9--99-----9---9---9-------|
D:-------------------------------------------------------------------------------------------|
A:-------------------------------------------------------------------------------------------|
E:-------------------------------------------------------------------------------------------|

E:-------------------------------------------------9-11-11b12------------|
B:-9h10p9----------------------------------------------------------------|
G:----------1111b13b11b13b11-9-9/11----------------------2--------------|
D:--------------------------------------------------------------------2--|
A:--------------------------------------------------------------------0--|
E:-----------------------------------------------------------------------|
Related for Blog 27 - Zabiore Cie tab