Song name
# A B C D E F G H I J K L M N O P Q R S T U V W X Y Z

Misc Unsigned Bands - Ruiner - Kiss That Mfer Goodnight tab

----------------------------------------------------------------------------
               KISS THAT MF'ER GOODNIGHT - Ruiner
----------------------------------------------------------------------------
Tabbed by: speedmetal777
http://myspace.com/918skates

Tuning: Drop-d (low to high)

e|-------------------------------------------------------------------------|
B|-------------------------------------------------------------------------|
G|--------12-12-12-12-12-12-----------12-12-12-12-12-12--------------------|
D|--5-5----------------------8--5-5----------------------8--3-3------------|
A|--5-5---10-10-10-10-10-10--8--5-5---10-10-10-10-10-10--8--3-3------------|
D|--5-5----------------------8--5-5----------------------8--3-3------------|

e|-------------------------------------------------------------------------|
B|-------------------------------------------------------------------------|
G|--10-10-10--9-9-9--5-5-5---------10-10-10--9-9-9--5-5-5------------------|
D|--------------------------3-3-3------------------------------------------|
A|--8--8--8---7-7-7--3-3-3--3-3-3--8--8--8---7-7-7--3-3-3------------------|
D|--------------------------3-3-3------------------------------------------|
                                                                          [repeat]

e|-------------------------------------------------------------------------|
B|-------------------------------------------------------------------------|
G|-------------------------------------------------------------------------|
D|--5h7-7--7-7-7-5--7--7-7-7-5-3--3-3-3-3--5--5-5-5-5-5--------------------|
A|--5h7-7--7-7-7-5--7--7-7-7-5-3--3-3-3-3--3--3-3-5-5-5--------------------|
D|--5h7-7--7-7-7-5--7--7-7-7-5-3--3-3-3-3---------5-5-5--------------------|

[repeat]

That's all I've got for now, I'll update it later.
http://www.youruiner.com/

| /  slide up
| \  slide down
| h  hammer-on
| p  pull-off
| ~  vibrato
| +  harmonic
| x  Mute note
============================================================================
Tap to rate this tab
# A B C D E F G H I J K L M N O P Q R S T U V W X Y Z