Song name
# A B C D E F G H I J K L M N O P Q R S T U V W X Y Z

Misc Unsigned Bands - Miso Hornee Now - Saxamaphone tab

#----------------------------------PLEASE NOTE---------------------------------#
#This file is the author's own work and represents their interpretation of the #
#song. You may only use this file for private study, scholarship, or research. #
#------------------------------------------------------------------------------#

SAXAMAPHONE
As recorded by Miso Hornee Now
(From the 2008 Album MISO HORNEE NOW EP)

Transcribed by Jonathan Rose
	

Words and Music by Miso Hornee Now

Gtr I (E A D G B E) - 'Miko'

  N.C.
 4/4
  Gtr I
  PM      PM        PM
  E E E E E E E E   E  E  E E  E  E E E
|-----------------|---------------------|
|-----------------|---------------------|
|-----------------|---------9-----------|
|-----9-------9---|------10---10--------|
|---7---7---7---7-|---10---------10-----|
|-0-------8-------|-8---------------8-5-|


  PM      PM        PM
  E E E E E E E E   E  E  E E  E  E E E
|-----------------|----------------------|
|-----------------|----------------------|
|-----------------|---------9------------|
|-----9-------9---|------10---10---------|
|---7---7---7---7-|---10---------10------|
|-0-------8-------|-8---------------8-5--|


  E5 D5 E5               E5 G5  E5
           PM--------|             PM--------|
  E. E. Q  S S S S S S   E.  E. Q  S S S S S S
|----------------------|-----------------------|
|----------------------|-----------------------|
|-9--7--9--------------|-9--12--9--------------|
|-9--7--9--------------|-9--12--9--------------|
|-7--5--7--7-7-7-7-7-7-|-7--10--7--7-7-7-7-7-7-|
|----------------------|-----------------------|


  E5 D5 E5               C5      G/B   G5/D
           PM--------|         PM
  E. E. Q  S S S S S S   E. E. E E E E E
|----------------------|------------------|
|----------------------|------------------|
|-9--7--9--------------|-5--5----4-4-4-0--|
|-9--7--9--------------|-5--5----5-5-5-0--|
|-7--5--7--7-7-7-7-7-7-|-3--3--3-2-2-2----|
|----------------------|------------------|


  E5
  W          +W
|----------|--------|
|----------|--------|
|----------|--------|
|-2--------|-(2)----|
|-2--------|-(2)----|
|-0--------|-(0)----|



Duration Legend
---------------
W - whole; H - half; Q - quarter; E - 8th; S - 16th; T - 32nd; X - 64th; a - acciaccatura
+ - note tied to previous; . - note dotted; .. - note double dotted
Uncapitalized letters represent notes that are staccato (1/2 duration)
Irregular groupings are notated above the duration line
Duration letters will always appear directly above the note/fret number it represents the
duration for.  Duration letters with no fret number below them represent rests.  Multi-
bar rests are notated in the form Wxn, where n is the number of bars to rest for.  Low
melody durations appear below the staff

Tablature Legend
----------------
 h   - hammer-on
 p   - pull-off
 b   - bend
 pb  - pre-bend
 r   - bend release (if no number after the r, then release immediately)
 /\  - slide into or out of (from/to "nowhere")
 s   - legato slide
 S   - shift slide
 - natural harmonic
[n]  - artificial harmonic
n(n) - tapped harmonic
 ~   - vibrato
 tr  - trill
 T   - tap
 TP  - trem. picking
 PM  - palm muting
\n/  - tremolo bar dip; n = amount to dip
 \n  - tremolo bar down
 n/  - tremolo bar up
/n\  - tremolo bar inverted dip
 =   - hold bend; also acts as connecting device for hammers/pulls
 <> - volume swell (louder/softer)
 x   - on rhythm slash represents muted slash
 o   - on rhythm slash represents single note slash

Misc Legend
-----------
 |  - bar
||  - double bar
||o - repeat start
o|| - repeat end
*|  - double bar (ending)
 :  - bar (freetime)
 $  - Segno
 &  - Coda
Tempo markers -  = BPM(8/16=s8/s16), where s8 = swing 8ths, s16 = swing 16ths


** Generated using Power Tab Editor by Brad Larsen: The Official Power Tab Web Site
Tap to rate this tab
# A B C D E F G H I J K L M N O P Q R S T U V W X Y Z