Song name
# A B C D E F G H I J K L M N O P Q R S T U V W X Y Z

Misc Unsigned Bands - Eccentric Toilet - Unheaven tab

Eccentric Toilet - Unheaven
Tabbed by: Billybusa (me)
Tuning: Drop B

INTRO
C#||----------------------------|-------------------------------------|
G#||---6--5--6--8--6--8--10--8--|--10--11--10--8--10~---11\8\---------|
E ||*---------------------------|-------------------------------------|
B ||*---------------------------|-------------------------------------|
F#||----------------------------|-------------------------------------|
B ||----------------------------|-------------------------------------|

VERSE 1
|-----------------------------------|
|-----------------------------------|
|*----------------------------------|
|*----------------------------------|
|-------9---8---6---8---9---8---6-6-|
|---0-0---0---0---0---0---0---0-----|

----------------------------------|----------------------------------|
----------------------------------|----------------------------------|
----------------------------------|----------------------------------|
----------------------------------|------9---8---6---8---9---8---6-6-|
------9---8---6---8---9---8---6-6-|----------------------------------|
--0-0---0---0---0---0---0---0-----|--0-0---0---0---0---0---0---0-----|
  
-----------------------------------|
-----------------------------------|
----------------------------------*|
------9---8---6---8---9---8---6-6-*|
-----------------------------------|
--0-0---0---0---0---0---0---0------|


DEEP GROWLING
Tremolo pick each note here:
|--------------------------------|
|--------------------------------|
|--------------------------------|
|--------------------------------| x2
|--------------------------------|
|--9--11--13--11--9--11--13--11--|

----------------------------------|  |----------------------------------|
----------------------------------|  |----------------------------------|
----------------------------------|  |----------------------------------|
----------------------------------|x2|----------------------------------| x2
----------------------------------|  |----------------------------------|
--11--13--15--13--11--13--15--13--|  |--13--15--16--15--13--15--16--15--|

----------------------------------|
----------------------------------|
----------------------------------|
----------------------------------| x2
----------------------------------|
--15--16--18--16--15--16--18--16--|


VERSE 2
|------------------------------------|
|------------------------------------|
|*-----------------------------------|
|*-----------------------------------|
|--------9---8---6---8---9---8---6-6-|
|-----0-0---0---0---0---0---0---0----|

----------------------------------|----------------------------------|
----------------------------------|----------------------------------|
----------------------------------|----------------------------------|
----------------------------------|------9---8---6---8---9---8---6-6-|
------9---8---6---8---9---8---6-6-|----------------------------------|
--0-0---0---0---0---0---0---0-----|--0-0---0---0---0---0---0---0-----|
            
-----------------------------------|
-----------------------------------|
----------------------------------*|
------9---8---6---8---9---8---6-6-*|
-----------------------------------|
--0-0---0---0---0---0---0---0------|                          
                                                x4
|--------------------|---------------------------|
|--------------------|---------------------------|
|*-------------------|--------------------------*|
|*---5---------------|---4--5--8------9--6------*|
|--------------------|---------------------------|
|--------------------|---------------------------|                    
Slow Tremolo Picking^^        

PRE BREAKDOWN  
|-----------------------------|
|-----------------------------|
|*----------------------------|
|*----------------------------|
|---6------6--8--9----8---6---|
|-----------------------------|

------------------------|-------------------------------|
------------------------|-------------------------------|
------------------------|-------------------------------|
------------------------|-------------------------------|
--8---6------6-8--6--4--|--9------9--11--13----11---9---|
------------------------|-------------------------------|
  
---------------------------|
---------------------------|
--------------------------*|
--------------------------*|
--11---9------9-11--9--8---|
---------------------------|

BREAKDOWN:
|--------------------|-----------------------|
|--------------------|-----------------------|
|--------------------|-----------------------|
|--0--------3--------|--2--------5--3--2--3--|
|--0--------3--------|--2--------5--3--2--3--|
                                 .  .  .  .
   
--------------------|-----------------------|------------------|
--------------------|-----------------------|------------------|
--------------------|-----------------------|------------------|
--------------------|-----------------------|------------------|
--0--------3--------|--2--------5--3--2--3--|--0~--------------|
--0--------3--------|--2--------5--3--2--3--|--0~--------------|
                                .  .  .  .

------------------------|---------------------------|
------------------------|---------------------------|
------------------------|---------------------------|
------------------------|---------------------------|
--0-0-0---------0---0---|--0--0-0-0-----------------|
--0-0-0---------0---0---|--0--0-0-0-----------------|
  Pm----------------------------------->

------------------------|---------------------------|
------------------------|---------------------------|
------------------------|---------------------------|
------------------------|---------------------------|
--0-0-0---------0---0---|--0--0-0-0-----------------|
--0-0-0---------0---0---|--0--0-0-0-----------------|
  Pm----------------------------------->

------------------------|---------------------------|
------------------------|---------------------------|
------------------------|---------------------------|
------------------------|---------------------------|
--0-0-0---------0---0---|--0--0-0-0-----------------|
--0-0-0---------0---0---|--0--0-0-0-----------------|
  Pm----------------------------------->

------------------------|---------------------------|
------------------------|---------------------------|
------------------------|---------------------------|
------------------------|---------------------------|
--0-0-0---------0---0---|--0--0-0-0-----------------|
--0-0-0---------0---0---|--0--0-0-0-----------------|
  Pm----------------------------------->

|---------------------------------------------------------------||
|---------------------------------------------------------------||
|---------------------------------------------------------------||
|--------------------------------------------11p7-10p6-9p5-8p4--||
|-0-0--4h7-5h8-0-0--4h7-5h8---0-0--4h7-5h8----------------------||
|-0-0----------0-0------------0-0-------------------------------||
  . .          . .            . .

CLEAN VOCALS:
|---------------------|---------------------|
|---------------------|---------------------|
|---------------------|---------------------|
|--4------------4--8--|--3------------3--6--|
|---------------------|---------------------|
|---------------------|---------------------|
                                                                    
----------------------------------------|
----------------------------------------|
----------------------------------------|
--1------------------3--4-----0---------|
----------------------------------------|
----------------------------------------|
slow Tremolo Picking of these notes ^^

VERSE 3:
----------------------------------|----------------------------------|
----------------------------------|----------------------------------|
----------------------------------|----------------------------------|
----------------------------------|----------------------------------|
------9---8---6---8---9---8---6-6-|------9---8---6---8---9---8---6-6-|
--0-0---0---0---0---0---0---0-----|--0-0---0---0---0---0---0---0-----|
       
----------------------------------|----------------------------------|----|----|
----------------------------------|----------------------------------|----|----|
----------------------------------|----------------------------------|----|----|
------9---8---6---8---9---8---6-6-|------9---8---6---8---9---8---6-6-|----|----|
----------------------------------|----------------------------------|----|----|
--0-0---0---0---0---0---0---0-----|--0-0---0---0---0---0---0---0-----|----|----|

DEEP GROWLING
Tremolo pick each note here:
|--------------------------------|
|--------------------------------|
|--------------------------------|
|--------------------------------| x2
|--------------------------------|
|--9--11--13--11--9--11--13--11--|

----------------------------------|  |----------------------------------|
----------------------------------|  |----------------------------------|
----------------------------------|  |----------------------------------|
----------------------------------|x2|----------------------------------| x2
----------------------------------|  |----------------------------------|
--11--13--15--13--11--13--15--13--|  |--13--15--16--15--13--15--16--15--|

----------------------------------|
----------------------------------|
----------------------------------|
----------------------------------| x2
----------------------------------|
--15--16--18--16--15--16--18--16--|

SOLO
This is only the rhythm guitar for the solo: repeat as many times as needed 
--------------------------------------|---------------------------------|
--------------------------------------|---------------------------------|
--------------------------------------|---------------------------------|
--------------------------------------|---------------------------------|
--10--10-10-10--10-10-10--10-10--10---|--8--8--8--8--8--8--8--8--8--8---|
--10--10-10-10--10-10-10--10-10--10---|--8--8--8--8--8--8--8--8--8--8---|
       .  .      .  .      .                .  .     .  .     .       

---------------------------------|
---------------------------------|
---------------------------------|
---------------------------------|
--6--6--6--6--6--6--6--6--6--6---|
--6--6--6--6--6--6--6--6--6--6---|
     .  .     .  .     .

CLEAN VOCALS 2:
------------------------|
------------------------|
------------------------|
------------------------|
--6------6---9--8---6---|
------------------------|

-------------------------|-------------------------|------------|-------|
-------------------------|-------------------------|------------|-------|
-------------------------|-------------------------|------------|-------|
-------------------------|-------------------------|------------|-------|
----4-----6--9--8--6---4-|--------6--9--8--6---2---|--4----6----|-------|
-------------------------|-------------------------|------------|-------|

SLOW SOLO
This is only the rhythm guitar for the solo: repeat as many times as needed 
|--------------------------------------|
|--------------------------------------|
|--------------------------------------|
|--------------------------------------|
|--10--10-10-10--10-10-10--10-10--10---|
|--10--10-10-10--10-10-10--10-10--10---|  
        .  .      .  .      .
       
---------------------------------|---------------------------------|------|
---------------------------------|---------------------------------|------|
---------------------------------|---------------------------------|------|
---------------------------------|---------------------------------|------|
--8--8--8--8--8--8--8--8--8--8---|--6--6--6--6--6--6--6--6--6--6---|------|
--8--8--8--8--8--8--8--8--8--8---|--6--6--6--6--6--6--6--6--6--6---|------|
     .  .     .  .     .               .  .     .  .     .  
      
BREAKDOWN 2
|--------------------------|----------------------------|------||
|--------------------------|----------------------------|------||
|--------------------------|----------------------------|------||
|--------------------------|----------------------------|------||
|--0--0--0---------0---0---|--0--0--0--0----------------|------||
|--0--0--0---------0---0---|--0--0--0--0----------------|------||
  Pm----------------------------------->
Tap to rate this tab
# A B C D E F G H I J K L M N O P Q R S T U V W X Y Z