Guitaretab - guitar tabs
Song name
# A B C D E F G H I J K L M N O P Q R S T U V W X Y Z

Misc Unsigned Bands - Zero Logic - Coming To Get You tab

"Coming to Get You" 
by Zero Logic

*DRUM INTRO*
*BASS ENTERS*

Intro (with doubling delay + flanger)
 
e|------------------|-00000000
B|------------------|-00000000
G|------------------|-00000000
D|-22222-22222-22222|-22222222
A|-22222-22222-22222|-22222222
E|-00000-00000-00000|-00000000
                     "1,2,3 GO!" 

Verse
[ Tab from: http://www.guitaretab.com/m/misc-unsigned-bands/114232.html ]
e|--------------------------|---2h3p0-|
B|--------------------------|---------|
G|-4444442222224444442222222|---------|
D|-4444442222224444442222222|---------|
A|-2222220000002222220000000|---------|
E|--------------------------|---------|


Chorus

D|-5555533333/5555533333--|
A|-5555533333/5555533333--|   x4
E|-3333311111/3333311111--|
   "I'm coming to get you"

Bridge (palm muted)
                                  
  (5 times)                         (6th bar)
D|-4-4-4-4-----2-2-----------------|-4-4-4-4-----2-2-44444444-|
A|-2-2-2-2-2-2-0-0-4-4-4-4-4-4-4-4-|-2-2-2-2-2-2-0-0-44444444-|
E|---------0-0-----2-2-2-2-2-2-2-2-|---------0-0-----22222222-|



the guitar solo is an improvisation on the pentatonic scale.

listen to the song for structure
easy to figure out :)




Related for Zero Logic - Coming To Get You tab
Advertisement will be closed in 10 seconds