Song name
# A B C D E F G H I J K L M N O P Q R S T U V W X Y Z

Misc Unsigned Bands - Angels Aces - Hammer Ons tab

Angels Aces- Hammerons

Really Fast Hammer ons

--------------0-3-5-0-3-5-0-3-5-0-3-5-0-3-5-0-3-5-0-3-5-0-3-5-0-3-5-0-----|
--------------------------------------------------------------------------|
--1-1-1-------------------------------------------------------------------|
--2-2-2-------------------------------------------------------------------|
--2-2-2----------------------------------------------repest once----------|
--------------------------------------------------------------------------|

---3-3-3-----3-5-7-3-5-7-3-5-7-3-5-7-3-5-7-3-5-7-3-5-7-3-5-7-3-5-7-3------|
---3-3-3------------------------------------------------------------------|
--------------------------------------------------------------------------|
--------------------------------------------------------------------------|
---2-2-2-------------------------------------------repeat once------------|
---3-3-3------second hand on third fret-----------------------------------|
Tap to rate this tab
 
# A B C D E F G H I J K L M N O P Q R S T U V W X Y Z