Song name
# A B C D E F G H I J K L M N O P Q R S T U V W X Y Z

Misc Unsigned Bands - John Luckey - I Needed You tab

-------------------------------------------------------------------------------
			     I Needed You – John Luckey
-------------------------------------------------------------------------------
Tabbed by: John Luckey
Email: JLuckey123@hotmail.com 	

Tuning: Standard (Capo 6)

G

e|------5--3----3--3--3--------3--3----3--3--3-|
B|------0--0----0--0--0--------0--0----0--0--0-|
G|---------0----0--0--0-----------0----0--0--0-|
D|---------0----0--0--0-----------0----0--0--0-|
A|-2----------------------2--------------------|
E|-3----------------------3--------------------|

D

e|--2h3--3--2----0--2----2----2--2-|
B|--3----3--3----3--3----3----3--3-|
G|--2-------2----2--2----2----2--2-|
D|--0-------0----0--0----0----0--0-|
A|---------------------------------|
E|---------------------------------|

Em

e|------3--0----0--0--0--------0--0----0--0--0-|
B|------0--0----0--0--0--------0--0----0--0--0-|
G|---------0----0--0--0-----------0----0--0--0-|
D|---------2----2--2--2-----------2----2--2--2-|
A|-2----------------------2--------------------|
E|-0----------------------0--------------------|

C

e|------0--0----0--0--0--------0--0----0--0--0-|
B|------3--1----1--1--1--------1--1----1--1--1-|
G|---------0----0--0--0-----------0----0--0--0-|
D|---------2----2--2--2-----------2----2--2--2-|
A|-3----------------------3--------------------|
E|-0----------------------0--------------------|

G
I always felt an empty feeling
D
I always felt alone
Em
But there was a light surrounding you
C
That helped to guide me home

G
You walked with me in the shadows
D
You helped me to be strong
Em
By my side straight through the darkness
C
I needed you there all along

G
I needed you
D
I needed you
Em
I needed you
C
I needed you there all along

G – D – Em – C x2

On this roller coaster that we call life
You sat right next to me
When we were chained down and were tortured
And the time we were set free 

You walked with me in the shadows
You helped me to be strong
By my side straight through the darkness
I needed you there all along

I needed you
I needed you
I needed you
I needed you there all along

G – D – Am – C x2

We did everything together
Everything as one
We’ll walk hand in hand forever
Until the world itself is done

I needed you
I needed you
I needed you
I needed you there all along

G – D – Em – C x2

I needed you
I needed you
I needed you
I needed you there all along

G – D – Em – C - G

| h  hammer-on
| p  pull-off
===============================================================================

Tap to rate this tab
 
# A B C D E F G H I J K L M N O P Q R S T U V W X Y Z