Song name
# A B C D E F G H I J K L M N O P Q R S T U V W X Y Z

Misc Unsigned Bands - Njj Productions - Nfl On Fox Theme tab

----------------------------------------------------------------------------
			NFL on Fox- NJJ productions
whenever I do this song people always want me just to do the intro so
that's all I tabbed. Note: to make it sound good I put on an extra "ending"
part.

----------------------------------------------------------------------------
Tabbed by: colinkochevar
Email: colinkochevar@hotamil.com

Tuning: standard

Intro
    no  chord       C5    no  chord      C+no3    no   chord
e|-------------3--------------------4----------------------3--3--4--8--7~~~----|
B|--1-3-4--3-1-----------1-3-4--3-1-------------1-3-4--3-1---------------------|
G|------------------5--------------------5-------------------------------------|
D|------------------5--------------------6-------------------------------------|
A|------------------3--------------------3-------------------------------------|
E|-----------------------------------------------------------------------------|

"ending"
  C5
e|8----------------------------------------------------------------------------|
B|8----------------------------------------------------------------------------|
G|5--5-------------------------------------------------------------------------|
D|---5-------------------------------------------------------------------------|
A|---3-------------------------------------------------------------------------|
E|-----------------------------------------------------------------------------|

| ~  vibrato
===============================================================================
Tap to rate this tab
# A B C D E F G H I J K L M N O P Q R S T U V W X Y Z