Song name
# A B C D E F G H I J K L M N O P Q R S T U V W X Y Z

Misc Unsigned Bands - Belakor - Neither Shape Nor Shadow tab

Help us improve GuitareTab! Take a short survey!
This really sucks its the first ever song i've transcibed by ear.
I'm not even sure if the tuning is right

D-------7-8-10-8--7-8-7--------------------|
A-5-6-5-----------------6-5/6-6-6--6-6/8-8-|
F------------------------------------------|
C------------------------------------------|
G------------------------------------------|
D------------------------------------------|

--5-8---5-8--8---8-7---7-10-------|
-5----6--------6-----8------------|
----------------------------------|
----------------------------------|
----------------------------------|
----------------------------------|
Related for Belakor - Neither Shape Nor Shadow tab