Song name
# A B C D E F G H I J K L M N O P Q R S T U V W X Y Z

Misc Unsigned Bands - Endast - Time Of Need tab

-------------------------------------------------------------------------------
			     SONG NAME - Band Name
-------------------------------------------------------------------------------
Tabbed by:Mike
Email: Myspace.com/MikeDemer or Darkfire1440@aol.com

If you don't know the band check out the URL below, good band


http://profile.myspace.com/index.cfm?fuseaction=user.viewprofile&friendid=9289632

Tuning: E A D G B E

e|---------------------------------------------------------------------------| 
B|---------------------------------------------------------------------------|
G|---------------------------------------------------------------------------|
D|----------------------------5---5p3----------------------------------------|
A|-3--------6/1-------6---8-----------6----8/6--5----------------------------|
E|---------------------------------------------------------------------------|

e|---------------------------------------------------------------------------|
B|---------------------------------------------------------------------------|
G|---------------------------------------------------------------------------|
D|----------------------------5---5p3----------------------------------------|
A|-3--------6/1-------6---8-----------6----8/6---5---------------------------|
E|---------------------------------------------------------------------------|

e|---------------------------------------------------------------------------|
B|---------------------------------------------------------------------------|
G|---------------------------------------------------------------------------|
D|---------------------------------------------------------------------------|
A|--------6p5-------8p6-------6p5-------5h6p5-------6p5----5h6h8-8\10--8-----|
E|---000-------000-------000-------000---------000-------0-------------------|

e|---------------------------------------------------------------------------|
B|---------------------------------------------------------------------------|
G|---------------------------------------------------------------------------|
D|---10p9p7------------------------------------------------------------------|
A|-----------8---------------------------------------------------------------|
E|---------------------------------------------------------------------------|

e|---------------------------------------------------------------------------|
B|---------------------------------------------------------------------------|
G|---------------------------------------------------------------------------|
D|---------------------------------------------------------------------------|
A|-------6p5-------8p6-------6p5-------5h6p5-------6p5----5h6h8-8\10--8------|
E|--000-------000-------000-------000---------000-------0--------------------|

e|---------------------------------------------------------------------------|
B|---------------------------------------------------------------------------|
G|---------------------------------------------------------------------------|
D|---10p9p7------------------------------------------------------------------|
A|-----------8---------------------------------------------------------------|
E|---------------------------------------------------------------------------|



| /  slide up
| \  slide down
| h  hammer-on
| p  pull-off
| ~  vibrato
| +  harmonic
| x  Mute note
===============================================================================
Tap to rate this tab
# A B C D E F G H I J K L M N O P Q R S T U V W X Y Z