Song name
# A B C D E F G H I J K L M N O P Q R S T U V W X Y Z

Misc Unsigned Bands - Spilt Milk - Running tab

Running-Spilt Milk

Standard Tuning

6/8 time.

 Am             C             F             E
e|0--0--|0--0--|0--0--|0--0--|1--1--|1--1--|0--0--|0--0--R|
B|-1--1-|-1--1-|-1--1-|-1--1-|-1--1-|-1--1-|-0--0-|-0--0-E|
G|--2--2|--2--2|--0--0|--0--0|--2--2|--2--2|--1--1|--1--1P|
D|---2--|---2--|---2--|---2--|---3--|---3--|---2--|---2--E|
A|0-----|0-----|3-----|3-----|------|3-----|------|2-----A|
E|------|------|------|------|1-----|------|0-----|------T|

 Dsus4         D              C             Em
e|3--3--|3--3--|2--2--|2--2--|0--0--|0--0--|0--0--|0~~~~~|
B|-3--3-|-3--3-|-3--3-|-3--3-|-1--1-|-1--1-|-0--0-|0~~~~~|
G|--2--2|--2--2|--2--2|--2--2|--0--0|--0--0|--0--0|0~~~~~|
D|0--0--|0--0--|0--0--|0--0--|---2--|---2--|---2--|2~~~~~|
A|------|------|------|------|3-----|3-----|------|2~~~~~|
E|------|------|------|------|------|------|0-----|0~~~~~|

After the Dsus4/D/C/Em, play the Am/C/F/E one more time.

After that, just play Am/C/F/G until the song ends in a fade.

Tap to rate this tab
 
# A B C D E F G H I J K L M N O P Q R S T U V W X Y Z