Song name
# A B C D E F G H I J K L M N O P Q R S T U V W X Y Z

Misc Unsigned Bands - Xbarcadiax - Self Portrait tab

These are just the parts.
Listen to the song for the timing.
It's my first tab so rate this shit niggaaaas. :]

|-----------------------------------|
|-----------------------------------|
|------------------------5----------|
|--0---------------------3-------0--|
|--0-0-0-0-0-0-0-1-0-0-0---4-3-1-0--|
|--0-0-0-0-0-0-0-1-0-0-0---4-3-1-0--|
       . . . . . .   . . .           

|------------------------------------------------|
|------------------------------------------------|
|------------------------------------------------|
|--0----5----8---7---5/7-0----5----88888/101010--|
|--0-00-3-00-6-0-5-0-3/5-0-00-3-00-66666/8-8-8---|
|--0-00---00 --0---0-----0-00---00---------------|
     ..   ..   .   .       ..   ..                

|-----------------------------|
|-----------------------------|
|-----------------------------|
|--0--------------------------|
|--0-00-000-000-0-00-000-000--|
|--0-00-000-000-0-00-000-000--|
     .. ... ... . .. ... ...   

yea thats pretty much it.
have fun.

myspace.com/xbarcadiax
seventhdagger.com
Tap to rate this tab
 
# A B C D E F G H I J K L M N O P Q R S T U V W X Y Z