Song name
# A B C D E F G H I J K L M N O P Q R S T U V W X Y Z

Misc Unsigned Bands - Fields - If You Fail We All Fail tab

Intro

  E

--0---------------------||
--0---------------------||
--1---------------------||
--2---------------------||
--2---------------------||
--0---------------------||

Chorus

  E          Gm#        E          Gm#        Fm#

--0-------|--0-------|--0-------|--0-------|--0-------|
--0-------|--0-------|--0-------|--0-------|--0-------|
--1-------|--4-------|--1-------|--4-------|--2-------|
--2-------|--6-------|--2-------|--6-------|--4-------|
--2-------|--6-------|--2-------|--6-------|--4-------|
--0-------|--4-------|--0-------|--4-------|--2-------|

  Cm#        Fm#        E
--0-------|--0-------|--0-------||
--0-------|--0-------|--0-------||
--6-------|--4-------|--1-------||
--6-------|--6-------|--2-------||        or
--4-------|--6-------|--2-------||
----------|--4-------|--0-------||

  Cm#        Fm#        E
--0-------|--0-------|--0-------||
--0-------|--0-------|--0-------||
--9-------|--4-------|--1-------||
--11------|--6-------|--2-------|| 
--11------|--6-------|--2-------||
--9-------|--4-------|--0-------||

 
Verse

   Gm#          Gm#      A          Gm#        Fm#

|--0-------|0---------|0---------|0---------|0---------|
|--0-------|0---------|0---------|0---------|0---------|
|.-4-------|4---------|6---------|4---------|2---------|
|.-6-------|6---------|7---------|6---------|4---------|
|--6-------|6---------|7---------|6---------|4---------|
|--4------2|4--------2|5--------2|4--------5|2---------|

  Cm#        Fm#        E
--0-------|0---------|0---------||
--0-------|0---------|0---------||
--6-------|2---------|1--------.||
--6-------|4---------|2--------.||      
--4-------|4---------|2---------||
---------0|2--------4|0---------||

http://www.myspace.com/fieldsband
Tap to rate this tab
 
# A B C D E F G H I J K L M N O P Q R S T U V W X Y Z