Guitaretab - guitar tabs
Song name
# A B C D E F G H I J K L M N O P Q R S T U V W X Y Z

Misc Unsigned Bands - The Parlor Mob - Everything Youre Breathing For tab

Artist: The Parlor Mob
Song: Everything You're Breathing For
Tabbed By: Soloviss (Soloviss@hotmail.com)


Intro
0:00-0:34
e|-------------------------|-----------|-----------------|
B|--------12--12-13-12--12-|-----12/10-|-----------------|
G|------------------------|-----------|----------------|x4
D|----12------------------|---10------|------8h10p8----|
A|--10---------------------|-8---------|---10--------h10-|
E|-------------------------|-----------|-8---------------|

Upbeat Scales
0:34-0:44
e|-------------|--------------|------------|-----------------|
B|-------------|--------------|--8-8h9p8-8-|--10-10h11p10-10-|
G|---7-7h8p7-7-|---9-9h10p9-9-|------------|-----------------|
D|-------------|--------------|------------|-----------------|
A|-5-----------|-7------------|-6----------|-8---------------|
E|-------------|--------------|------------|-----------------|

Fretwork Solo
0:45-0:55
e|-----|--------------3-------------------------------------------|
B|-----|----------------3-----------------------------------------|
G|-4-4-|-4h5p4-0-5-4-----5-4-0---3-0------------------------4-4-|x2
D|-5-5-|-----------------------0-----0-3-2-0----3-----3-----5-5-|
A|-5-5-|--------------------------------------3-5---3-5--3-5-5-5--|
E|-3-3-|-----------------------------------------------------3-3--|
[ Tab from: http://www.guitaretab.com/m/misc-unsigned-bands/114406.html ]
Main Melody
0:56-1:37
e|-------------------------|-----------|-----------------|
B|--------12--12-13-12--12-|-----12/10-|-----------------|
G|------------------------|-----------|----------------|x7
D|----12------------------|---10------|------8h10p8----|
A|--10---------------------|-8---------|---10--------h10-|
E|-------------------------|-----------|-8---------------|

Chord Part
1:38-1:50
e|---------------------------------|--------------------|
B|---------------------------------|--------------------|
G|-7-7-------9~-9~-----------------|-8-8---10---10---10-|
D|-8-8---x-x-10-10-----------------|-8-8---10---10---10-|
A|-8-8---x-x-10-10--10-8-10-11-10--|-6-6---8~---8~---8~-|
E|-6-6---x-x-9~-8~-----------------|--------------------|

Second Chord Part
1:50-1:56
e|----------------------------|
B|----------------------------|
G|-4-4---10-10--9~-9~-9~--7-4-|
D|-5-5---10-10--10-10-10--8-5-|
A|-5-5---8~-8~--10-10-10--8-5-|
E|-3-3----------8~-8~-8~--6-3-|

Sudden Mini-solo
1:56-2:00
e|-------------3------------------------------------------|
B|---------------3----------------------------------------|
G|-4h5p4-0-5-4-----5-4-0---3-0------------------------4-4-|
D|-----------------------0-----0-3-2-0----3-----3-----5-5-|
A|-------------------------------------3-5---3-5--3-5-5-5-|
E|----------------------------------------------------3-3-|

This is about as far as I could really tab it before the solo kicks in.
I know that all of you probably really wanted the solo but I just
couldn't do it, so I hope that you guys will find a way to tab it or
improve on what I have here.

Note: After the solo, it sounds like some of the above chords mixed with
that neat little solo. Play with it a bit until you get it right.
As far as I'm concerned, I believe I'm the first to tab this song so if you have any 
sorry.
Have fun!

http://www.myspace.com/theparlormob
Related for The Parlor Mob - Everything Youre Breathing For tab