Song name
# A B C D E F G H I J K L M N O P Q R S T U V W X Y Z

Misc Unsigned Bands - Naudo - Time After Time tab

Time After Time
by Cindi Lauper

performed by Naudo
http://www.youtube.com/naudoprd
tabbed by Andy Schiller
andy@andyschiller.com

|-------0---------|-------10---7-------|-5-----7p5-------|
|-7-------7-------|-0------------8-----|---5-------5-----|
|---7-------7-x---|---0------0-----7---|-----6-------6---|
|-7---7---------0-|-----0--------------|-----------------|
|-----------------|--------------------|-0---------------|
|-----------------|-3------------------|---------------0-|


|-----------5\-2-|-3-2-0-----------|
|-2-----2--------|-------3---3-----|
|---2-----2------|-------------2---|
|-----2----------|---------------0-|
|----------------|-----------------|
|-2--------------|-3---------------|

Tap to rate this tab
# A B C D E F G H I J K L M N O P Q R S T U V W X Y Z