Song name
# A B C D E F G H I J K L M N O P Q R S T U V W X Y Z

Misc Unsigned Bands - Greg Taylor - Under These Skies tab

this is my first tab, and i wrote it so dont yell if it sucks also i changed the name of 
song recently to

i remember why


intro guitar 1
play slowly

e]---------------------------------------------]
b]------3------------------3-------------------]
g]---0---------0--0------0---------0--0--------]
d]---------------------------0-----------------]   3x
a]--3--3------3--3------3--3------3--3---------]
E]---------------------------------------------]


bridge guitar 2


e]--x--x--x--x--x--x--x--x--------------------------]
b]--x--x--x--x--x--x--x--x--------------------------]
g]--3--3--3--3--3--3--3--3--------------------------]
d]--3--3--3--3--3--3--3--3--------------------------]
a]--3--3--3--3--3--3--3--3--------------------------]
E]--x--x--x--x--x--x--x--x--------------------------]


chorus guitar 1


e]--x--x--x-----x--x--x-----x--x--x------x--x--x----]
b]--3--3--3-----3--3--3-----3--3--3------3--3--3----]
g]--0--0--0-----0--0--0-----0--0--0------0--0--0----]
d]--0--0--0-----0--0--0-----0--0--0------0--0--0----]
a]--3--3--3-----2--2--2-----3--3--3------2--2--2----]
E]--3--3--3-----3--3--3-----3--3--3------3--3--3----]

e]--x--x--x-----x--x--x-----x--x--x-----------------]
b]--7--7--7--h--8--8--8--p--7--7--7-----------------]
g]--0--0--0-----0--0--0-----0--0--0-----------------]
d]--0--0--0-----0--0--0-----0--0--0-----------------]
a]--7--7--7-----7--7--7-----7--7--7-----------------]
E]--0--0--0-----0--0--0-----0--0--0-----------------]

e]--x--x--x-----x--x--x-----------------------------]
b]--3--3--3-----3--3--3-----------------------------]
g]--0--0--0-----0--0--0-----------------------------]
d]--0--0--0-----0--0--0-----------------------------]
a]--3--3--3-----2--2--2-h-3-------------------------]
E]--3--3--3-----3--3--3-----------------------------]


back to intro guitar 2


e]--------------------------------------------]
b]------3-----------------3-------------------]
g]---0--------0--0------0---------0--0--------]
d]--------------------------0-----------------]   3x
a]--3--3-----3--3------3--3------3--3---------]
E]--------------------------------------------]

bridge guitar 1

e]--x--x--x--x--x--x--x--x--------------------------]
b]--x--x--x--x--x--x--x--x--------------------------]
g]--3--3--3--3--3--3--3--3--------------------------]
d]--3--3--3--3--3--3--3--3--------------------------]
a]--3--3--3--3--3--3--3--3--------------------------]
E]--x--x--x--x--x--x--x--x--------------------------]

chorus guitar 2

e]--x--x--x-----x--x--x-----x--x--x------x--x--x----]
b]--3--3--3-----3--3--3-----3--3--3------3--3--3----]
g]--0--0--0-----0--0--0-----0--0--0------0--0--0----]
d]--0--0--0-----0--0--0-----0--0--0------0--0--0----]
a]--3--3--3-----2--2--2-----3--3--3------2--2--2----]
E]--3--3--3-----3--3--3-----3--3--3------3--3--3----]

e]--x--x--x-----x--x--x-----x--x--x-----------------]
b]--7--7--7--h--8--8--8--p--7--7--7-----------------]
g]--0--0--0-----0--0--0-----0--0--0-----------------]
d]--0--0--0-----0--0--0-----0--0--0-----------------]
a]--7--7--7-----7--7--7-----7--7--7-----------------]
E]--0--0--0-----0--0--0-----0--0--0-----------------]

e]--x--x--x-----x--x--x-----------------------------]
b]--3--3--3-----3--3--3-----------------------------]
g]--0--0--0-----0--0--0-----------------------------]
d]--0--0--0-----0--0--0-----------------------------]
a]--3--3--3-----2--2--2-h-3-------------------------]
E]--3--3--3-----3--3--3-----------------------------]

bridge guitar 1


e]--x--x--x--x--x--x--------------------------------]
b]--3--3--3--3--3--3--------------------------------]
g]--0--0--0--0--0--0--------------------------------]
d]--0--0--0--0--0--0--------------------------------]
a]--3--3--3--3--3--3--------------------------------]
E]--0--0--0--0--0--0--------------------------------]

chorus guitar 2

keep playing until end of song
e]--x--x--x-----x--x--x-----x--x--x------x--x--x----]
b]--3--3--3-----3--3--3-----3--3--3------3--3--3----]
g]--0--0--0-----0--0--0-----0--0--0------0--0--0----]
d]--0--0--0-----0--0--0-----0--0--0------0--0--0----]
a]--3--3--3-----2--2--2-----3--3--3------2--2--2----]
E]--3--3--3-----3--3--3-----3--3--3------3--3--3----]

e]--x--x--x-----x--x--x-----x--x--x-----------------]
b]--7--7--7--h--8--8--8--p--7--7--7-----------------]
g]--0--0--0-----0--0--0-----0--0--0-----------------]
d]--0--0--0-----0--0--0-----0--0--0-----------------]
a]--7--7--7-----7--7--7-----7--7--7-----------------]
E]--0--0--0-----0--0--0-----0--0--0-----------------]

e]--x--x--x-----x--x--x-----------------------------]
b]--3--3--3-----3--3--3-----------------------------]
g]--0--0--0-----0--0--0-----------------------------]
d]--0--0--0-----0--0--0-----------------------------]
a]--3--3--3-----2--2--2-h-3-------------------------]
E]--3--3--3-----3--3--3-----------------------------]


outro guitar 1


e]--------------------------------------------------]
b]---------------8--8--8------7--7--7---------------]
g]--7--7--7------0--0--0------0--0--0---------------] 6x
d]--7--7--7------7--7--7------7--7--7---------------]
a]--7--7--7------7--7--7------7--7--7---------------]
E]--------------------------------------------------]
Tap to rate this tab
# A B C D E F G H I J K L M N O P Q R S T U V W X Y Z