Song name
# A B C D E F G H I J K L M N O P Q R S T U V W X Y Z

Misc Unsigned Bands - The Hourglass - My Shadow tab

-------------------------------------------------------------------------------
			     SONG NAME - Band Name
-------------------------------------------------------------------------------
Tabbed by:M>GEmail:N/A there are no hammer-ons in this sog you need to pick all notes if 
guitar dosnt have a 25th fret just

Tuning:open c add lots of reverb and bass
e|--1--2--2-3-7-7------------11-3-2-1-3--2-4-2-3-4-7-8-9-5-4-----------9-9--|
B|-2--2-2--3-4-5-----------25---------0----------------------3--------8-----|
G|---------------9-------14-----------0-----------------------2------7------|
D|----------------9----14-------------8-------------------------1---4-------|
A|-----------------9-12---------------1--------------------------3-4--------|
E|------------------------------------9---------------------------4---------|


e|-17-14-14-12-1-4-5-15-2-3-7--12--------------5-7-8-9----------------------|
B|-------------------------------13----------1------------------------------|
G|---------------------------------15-------3---5-----11--------------------|
D|-----------------------------------5-----5------------14------------------|
A|------------------------------------7-------3-----------6-----------------|
E|-------------------------------------8-9-----------------7-33337334339333-|

e|-8-11-14-4-----12-------15---------------------------------------12----1--|
B|----------4------13-------17----------777777----------------------x-12-3--|
G|-----------4-------14-------21---33333------999999----------------x----2--|
D|------------2--------5--------2-------------------1111111111------x----2--|
A|-------------1--------6--------4----------------------------12-12-x----7--|
E|--------------6--------8--------4---------------------------------12---9--|
Tap to rate this tab
# A B C D E F G H I J K L M N O P Q R S T U V W X Y Z