Song name
# A B C D E F G H I J K L M N O P Q R S T U V W X Y Z

Misc Unsigned Bands - Mattrach - Amadeus Rock tab

Help us improve GuitareTab! Take a short survey!
e|------------------------------|---------7----------7---------8~|
B|------------------------------|-----------10-9-10----10-8-10---|
G|----------------7---------9---|10-9-8-9------------------------|
D|-9----------10----10-9-10---- |--------------------------------|
A|---12-11-12-------------------|--------------------------------|
E|------------------------------|--------------------------------|

e|-----------------------------|---------7----------7---------8~|
B|-----------------------------|-----------10-9-10----10-8-10---|
G|----------------7---------9--|10-9-8-9------------------------|
D|-9----------10----10-9-10----|--------------------------------|
A|---12-11-12------------------|--------------------------------|
E|-----------------------------|--------------------------------|

e|-------------------------|-----------------------|------------------------|------------------------|
B|-------8-8-10-8----------|-------8-8-10-8--------|------------------------|------------------------|
G|-/9-10----------10-9-7~--|--9-10----------10-9-7~|-------9-9-10-9---------|-------9-9-10-9---------|
D|-------------------------|-----------------------|-10-12----------12-10-9~|-10-12----------12-10-9~|
A|-------------------------|-----------------------|------------------------|------------------------|
E|-------------------------|-----------------------|------------------------|------------------------|

e|-----------------------------|---------7----------7---------8~|
B|-----------------------------|-----------10-9-10----10-8-10---|
G|----------------7---------9--|10-9-8-9------------------------|
D|-9----------10----10-9-10----|--------------------------------|
A|---12-11-12------------------|--------------------------------|
E|-----------------------------|--------------------------------|

e|--------------------------------------------|
B|-10/12-13-13p12-10-9-10---------------------|
G|------------------------9-10-7--------------|
D|-------------------------------10~-9------7~|
A|--------------------------------------------|
E|--------------------------------------------|

e|-------9------------9------------------------------------9------------9--------------------------|
B|-10-12--------10-12--------12-10-9----9-10-12-9----10-12--------10-12--------12-10-9----12-9---10|
G|-----------------------------------11------------9-----------------------------------11------9---|
D|-------------------------------------------------------------------------------------------------|
A|-------------------------------------------------------------------------------------------------|
E|-------------------------------------------------------------------------------------------------|

e|-------9------------9------------------------------------9------------9--------------------------|
B|-10-12--------10-12--------12-10-9----9-10-12-9----10-12--------10-12--------12-10-9----12-9---10|
G|-----------------------------------11-----------9------------------------------------11------9---|
D|-------------------------------------------------------------------------------------------------|
A|-------------------------------------------------------------------------------------------------|
E|-------------------------------------------------------------------------------------------------|
Related for Mattrach - Amadeus Rock tab