Song name
# A B C D E F G H I J K L M N O P Q R S T U V W X Y Z

Misc Unsigned Bands - The One Star - Takeharu Ishimoto tab

The One Star - by Takeharu Ishimoto..
Game: The World Ends With You / Subarashiki Kono-sekai
Since no one else put this one I guess I did? A pretty good song.
My first tab: I got kinda confused on the solo so watch out for that one
= /


-Intro- - Starting filler -
E|-----------------------------------------------------------------|
B|-----------------------------------------------------------------|
G|-9---9-------7-------7-------7---10--10--10--10--12--12--12--12--|
D|-9---9-------7-------7-------7---10--10--10--10--12--10--10--10--|
A|-7---7-------5-------5-------5---8---8---8---8---10--10--10--10--|
E|-----------------------------------------------------------------|x4


-Background Riff-

E|-----------------------------------------------------------------|
B|-----------------------------------------------------------------|
G|-X---X---9-------X---X---9-------X---X---9-------X---X---9-------|
D|-X---X---9-------X---X---9-------X---X---9-------X---X---9-------|
A|-X---X---7-------X---X---7-------X---X---7-------X---X---7-------|
E|-X---X---X-------X---X---X-------X---X---X-------X---X---X-------|

E|-----------------------------------------------------------------|
B|-----------------------------------------------------------------|
G|-X---X---7-------X---X---7-------X---X---7-------X---X---7-------|
D|-X---X---7-------X---X---7-------X---X---7-------X---X---7-------|
A|-X---X---5-------X---X---5-------X---X---5-------X---X---5-------|
E|-X---X---X-------X---X---X-------X---X---X-------X---X---X-------|

All x4

-Bridge-
E|-----------------------------------------------------------------|
B|-----------------------------------------------------------------|
G|-6---6---6---9-------9---9---7-------7---7-------5-------5-------|
D|-6---6---6---9-------9---9---7-------7---7-------5-------5-------|
A|-4---4---4---7-------7---7---5-------5---5-------3-------3-------|
E|-----------------------------------------------------------------|x3

E|-----------------------------------------------------------------|
B|-----------------------------------------------------------------|
G|-6---6---6---9-------9---9---7-------7x--------------------------|
D|-6---6---6---9-------9---9---7-------7x--------------------------|
A|-4---4---4---7-------7---7---5-------5x--------------------------|
E|-----------------------------------------------------------------|

-Chorus-
E|-----------------------------------------------------------------|
B|-----------------------------------------------------------------|
G|-----------------------------------------------------------------|
D|-----------------------------------------------------------------|
A|-----------------------------------------------------------------|
E|-7-----------------------5---------------------------------------|
I don't sell myself to get such a reputation...
E|-----------------------------------------------------------------|
B|-----------------------------------------------------------------|
G|-------------------------7-----------------9---------------------|
D|-------------------------7-----------------9---------------------|
A|-------------------------5-----------------7---------------------|
E|-3---------------------------------------------------------------|
And, near, my only lair is the lonely star above...

E|-----------------------------------------------------------------|
B|-----------------------------------------------------------------|
G|-----------------------------------------------------------------|
D|-----------------------------------------------------------------|
A|-----------------------------------------------------------------|
E|-7-----------------------5---------------------------------------|
I'm not asking you for some consolation
E|-----------------------------------------------------------------|
B|-----------------------------------------------------------------|
G|-------------------------7-----------------9---------------------|
D|-------------------------7-----------------9---------------------|
A|-------------------------5-----------------7---------------------|
E|-3---------------------------------------------------------------|
But, sure, I know this is the only star above

-Solo-

Go in order from top to bottom:
B|/7---7---7---7---7---7---7---7---7---7---7---7---10--10--10--10--

B|-12--12--12--12--12--12--12--12--12--12--12--12--10--10--10--10--

B|-7---7---7---7---7---7---7---7---7---7---7---7---10--10--10--10--

B|-10--10--10--10--10--10--10--12--12--12--12--12--12--12--12--12--

Structure -

Intro
Background riff
Starting filler
Background riff
Bridge
Chorus
Starting filler
Background riff
Bridge
Chorus
Solo
Chorus...with a E|----7---------5-------3-- Ending
Tap to rate this tab
 
# A B C D E F G H I J K L M N O P Q R S T U V W X Y Z