Song name
# A B C D E F G H I J K L M N O P Q R S T U V W X Y Z

Misc Unsigned Bands - The New York Fund - Julie July tab

-------------------------------------------------------------------------------
                        JULIE JULY - The New York Fund
-------------------------------------------------------------------------------
Tabbed by: SB
Email: brockenbrows@hotmail.co.uk

Tuning: Standard


This is a song from a band who have appeared at summer festivals all of 2008, V,
Leeds and Latitude to name a few. Check out there songs on 
But
guessing if you're checking this tab you already knew that. This is the first tab i've 
on UG, so please give as much crit as possible its all useful. Cheers

This first part is played in the intro, it starts of really slow but it builds up.

    B    B   B B   B   B B   B     E  D  B
e|-------------------------------------------|
B|---------------------------------9--7--4---|
G|--8----8---8-8---8---8-8---8-----9--7--4---| x12
D|--9----9---9-9---9---9-9---9-----9--7--4---|
A|--9----9---9-9---9---9-9---9-----7--5--2---|
E|--7----7---7-7---7---7-7---7---------------|
    D    D   D U   D   D U   U     D  D  D

After you've got this bit a second guitar plays a similar thing, only it plays it as a
instead of a chord progression.

e|----------------------------|
B|----------------------------|
G|-------------------9--7-----| x3
D|--9~-9~-9~-9~---9--------9--|
A|----------------------------|
E|----------------------------|

The three times you play the above riff comprise the verse and then we go back into the chorus

    B    B   B B   B   B B   B     E  D  B
e|-------------------------------------------|
B|---------------------------------9--7--4---|
G|--8----8---8-8---8---8-8---8-----9--7--4---| x4
D|--9----9---9-9---9---9-9---9-----9--7--4---|
A|--9----9---9-9---9---9-9---9-----7--5--2---|
E|--7----7---7-7---7---7-7---7---------------|
    D    D   D U   D   D U   U     D  D  D

And back to the verse


e|----------------------------|
B|----------------------------|
G|-------------------9--7-----| x3
D|--9~-9~-9~-9~---9--------9--|
A|----------------------------|
E|----------------------------|

The chorus once more

    B    B   B B   B   B B   B     E  D  B
e|-------------------------------------------|
B|---------------------------------9--7--4---|
G|--8----8---8-8---8---8-8---8-----9--7--4---| x4
D|--9----9---9-9---9---9-9---9-----9--7--4---|
A|--9----9---9-9---9---9-9---9-----7--5--2---|
E|--7----7---7-7---7---7-7---7---------------|
    D    D   D U   D   D U   U     D  D  D

We have a solo here which you can improvise and then a chorus of


    B    B   B B   B   B B   B     E  D  B
e|-------------------------------------------|
B|---------------------------------9--7--4---|
G|--8----8---8-8---8---8-8---8-----9--7--4---| x4
D|--9----9---9-9---9---9-9---9-----9--7--4---|
A|--9----9---9-9---9---9-9---9-----7--5--2---|
E|--7----7---7-7---7---7-7---7---------------|
    D    D   D U   D   D U   U     D  D  D

You play the chorus riff once more only after the final B (x2444x) chord there is a
and you play one last B (7998xx)
Tap to rate this tab
# A B C D E F G H I J K L M N O P Q R S T U V W X Y Z