Song name
# A B C D E F G H I J K L M N O P Q R S T U V W X Y Z

Misc Unsigned Bands - Emiliana - Paradise tab

E|----------------------------------------------------------------------------------|
B|----------------------------------------------------------------------------------|
G|----------------------------------------------------------------------------------|
D|-0-0-0-0-8---0-0-0-7------------8p5h7p5---------0-0-0-5---0--0-0-0--0-0-0---------|
A|-0-0-0-0-----0-0-0----8--5h7h8----------8p5h7p5-0-0-0-----0--0-0-0--0-0-0---------|
D|-0-0-0-0-----0-0-0------------------------------0-0-0-----0--0-0-0--0-0-0---0h2h3-|

E|-----------------|
B|-----------------|
G|-3p0h2p0---------|
D|---------3p0h2p0-|
A|-----------------|    reapeat
D|-----------------|
			palm mute all the open d chords
Tap to rate this tab
# A B C D E F G H I J K L M N O P Q R S T U V W X Y Z