Song name
# A B C D E F G H I J K L M N O P Q R S T U V W X Y Z

Misc Unsigned Bands - Big Boys - Jump The Fence tab

Main Riff
E----------------|
B----------------|
G-5--7-x-x-x-x-x-|
D-5--7-x-x-x-x-x-|
A-3--5-x-x-x-x-x-|
E----------------|

Main Riff Variant
E----------------|  
B----------------|
G-5--7-x-x-x-x-x-|
D-5--7-x-x-x-x-x-|
A-3--5-8-8-8-8-8-|
E----------------|

Pre-Chorus
E--------------------|
B--------------------|
G-12-12-12-12--------|
D-12-12-12-12--12-12-|
A-10-10-10-10--12-12-|
E--------------10-10-|

Chorus
E--------------------|
B--------------------|
G-5--7-7--10---------|
D-5--7-7--10---------|
A-3--5-5--8----------|
E--------------------|

****************************************************************************
Order:

Main Riff           x4
Main Riff Variant   x5
Pre-Chorus          x5
Main Riff           x4
Chorus              x1
Main Riff           x3
Main Riff Variant   x4
Pre-Chorus          x4
Main Riff Variant   x4
Chorus              x1
Main Riff           x10
Main Riff Variant   x5
Pre-Chorus          x4
Main Riff Variant   x4
Chorus              x1


http://www.soundonsound.org/index2.html 

http://www.touchandgorecords.com/bands/band.php?id=35&photo=408# (Record Label Site for them)

http://homepages.nyu.edu/~cch223/usa/bigboys_main.html (Fan Site)
Tap to rate this tab
# A B C D E F G H I J K L M N O P Q R S T U V W X Y Z