Song name
# A B C D E F G H I J K L M N O P Q R S T U V W X Y Z

Misc Unsigned Bands - Big Boys - Sound On Sound tab

MAIN VERSE:
E---------------|---------------|---------------|---------------|
B---------------|---------------|---------------|---------------|
G-0--0--0--0--0-|-0--0--0--0--0-|-0--0--0--0--0-|-0--0--0--0--0-|
D-7--7--7--7--7-|-7--7--7--7--7-|-7--7--7--7--7-|-7--7--7--7--7-|
A-9--9--9--9--9-|-9--9--9--9--9-|-9--9--9--9--9-|-9--9--9--9--9-|
E---------------|---------------|---------------|---------------|

E---------------|---------------|---------------|---------------|
B---------------|---------------|---------------|---------------|
G-0--0--0--0--0-|-0--0--0--0--0-|-0--0--0--0--0-|-0--0--0--0--0-|
D-7--7--7--7--7-|-7--7--7--7--7-|-7--7--7--7--7-|-7--7--7--7--7-|
A-9--9--9--9--9-|-9--9--9--9--9-|-9--9--9--9--9-|-9--9--9--9--9-|
E---------------|---------------|---------------|---------------|

E---------------|---------------|---------------|---------------|
B---------------|---------------|---------------|---------------|
G-0--0--0--0--0-|-0--0--0--0--0-|-0--0--0--0--0-|-0--0--0--0--0-|
D-7--7--7--7--7-|-7--7--7--7--7-|-7--7--7--7--7-|-7--7--7--7--7-|
A-9--9--9--9--9-|-9--9--9--9--9-|-9--9--9--9--9-|-9--9--9--9--9-|
E---------------|---------------|---------------|---------------|

CHORUS:
E---------------|---------------|---------------|---------------|
B---------------|---------------|---------------|---------------|
G-0--0--0--0--0-|-0--0--0--0--0-|-0--0--0--0--0-|-0--0--0--0--0-|
D-2--2--2--2--2-|-4--4--4--4--4-|-2--2--2--2--2-|-4--4--4--4--4-|
A-3--3--3--3--3-|-5--5--5--5--5-|-3--3--3--3--3-|-5--5--5--5--5-|
E---------------|---------------|---------------|---------------|

E---------------|---------------|---------------|---------------|
B---------------|---------------|---------------|---------------|
G-0--0--0--0--0-|-0--0--0--0--0-|-0--0--0--0--0-|-0--0--0--0--0-|
D-2--2--2--2--2-|-4--4--4--4--4-|-2--2--2--2--2-|-4--4--4--4--4-|
A-3--3--3--3--3-|-5--5--5--5--5-|-3--3--3--3--3-|-5--5--5--5--5-|
E---------------|---------------|---------------|---------------|

order is super easy to figure out


http://www.soundonsound.org/index2.html

http://www.touchandgorecords.com/bands/band.php?id=35&photo=408# (Record Label Website for them)

Tap to rate this tab
# A B C D E F G H I J K L M N O P Q R S T U V W X Y Z