Song name
# A B C D E F G H I J K L M N O P Q R S T U V W X Y Z

Misc Unsigned Bands - Weeksy - Distill tab

Song: Distill
Artist: Weeksy(aka Kingbastard)
Album: The Don't Knows

Tabbed by: Devin Powers
Email: SineRider@hotmail.com


I know a lot of people have been asking Kingbastard for a tab of this song. I managed to 
most of the song by ear, and the live video helped me out a lot.

Video: http://www.youtube.com/watch?v=uTi5WVp12ZE

Anyways the tuning is standard, but with a capo on the 2nd fret in the video, 3rd in the 
recording.

Verse:
          Gadd9                      G5                   Emadd9
E||--------------7\-------|------------3---------|---------------------|
B||--------------8\-------|------------3---------|------------7\-------|
G||*----------------------|----------------------|------------0--------|
D||*----------------------|----------------------|-------9-------------|
A||--------10-------------|-------5--------------|--7------------------|
E||---7-------------------|--3--------------0----|---------------------|


         Csus2                   G
------------3---------|------------3--------|--L--------------------|
------------3---------|------------3--------|--L--------------------|
-------0--------------|-------0-------------|------------------0----|
----------------------|---------------------|-----------0h--2-------|
--3--------------0----|--2------------------|-----------------------|
----------------------|---------------------|-----------------------|


        Cadd9
------------3--------|--L-----------------||
------------3--------|--L-----------------||
-------0-------------|-------------------*||
---------------------|-------------------*||
--3------------------|--------------------||
---------------------|--------------------||

Chorus:
           Am                      G                   Csus2
E||------------0--------|------------3--------|------------3--------|
B||------------1--------|------------3--------|------------3--------|
G||------------2--------|-------0-------------|-------0-------------|
D||-------2-------------|---------------------|---------------------|
A||--0------------------|--2------------------|--3------------------|
E||---------------------|---------------------|---------------------|

--L--------------------||
--L--------------------||
------------------0----||
-----------0h--2-------||
-----------------------||
-----------------------||


I havn't gotten to the end yet, but I plan on tabbing it. If you follow this, you could 
figure it out yourself.

Have fun :) also check out his new album The Don't Knows on iTunes and other online 
stores


Tablature Legend
----------------
L - tied note
h - hammer on
p - pull off
/ -  slide into from below or out of upwards
\ -  slide into from above or out of downwards
Tap to rate this tab
# A B C D E F G H I J K L M N O P Q R S T U V W X Y Z