Song name
# A B C D E F G H I J K L M N O P Q R S T U V W X Y Z

Misc Unsigned Bands - The Three Samples - Now And Then tab

ok hi umm this is now and then.. the three samples well aha

probs never heard of us because we are not a signed band and we are a bunch of 14 year 
,, were putting out 3rd song together now and we wanted to know what you thought of this 
so please email me at
peter-godly@hotmail.com and tell me wot you thinkk...

capo 8th fret

---------------------------------------------------------------------------|
---0-------0-------0------1----------1--------1-------0--------0-------0---|
-----0-------0--------0-------0---------0-------0-------0--------0-------0-|
-------0-------0-----------------0---------0---------------0--------0------|
---------------------------------------------------------------------------|
---------------------------------------------------------------------------|

---------------------------------------------------------------------------|
---1-------1-------3------3----------3--------3-------1--------1-------1---|
-----0-------0--------0-------0---------0-------0-------0--------0-------0-|
-------0-------0-----------------0---------0---------------0--------0------|
---------------------------------------------------------------------------|
---------------------------------------------------------------------------|

---------------------------------------------------------------------------|
---0-------0-------0------3----------3--------3-------1--------1-------1---|
-----0-------0--------0-------0---------0-------0-------0--------0-------0-|
-------0-------0-----------------0---------0---------------0--------0------|
---------------------------------------------------------------------------|
---------------------------------------------------------------------------|

and thats bout it,,, thats the intro riff basically and then there are some chords which 
in and they play over the riff the chords are

G   - -   Cadd9  - -   A7sus4   - -   G
Tap to rate this tab
# A B C D E F G H I J K L M N O P Q R S T U V W X Y Z