Song name
# A B C D E F G H I J K L M N O P Q R S T U V W X Y Z

Misc Unsigned Bands - The Dreams - Alda tab

Help us improve GuitareTab! Take a short survey!
Hello
the first The Dreams tab on the internet (or atleast, i haven't found any yet)
i'm not completely sure about this, but it sounds about right...

intro

(almost or no distortion)
e/----------------------------------------------------------/
B/----------------------------------------------------------/
G/----------------------------------------------------------/
D/-5-555-5-5-5-5-5-7-777-7-7-7-7-7-9-999-9-9-9-9-9-9-9-9-9-9/
A/-3-333-3-3-3-3-3-5-555-5-5-5-5-5-7-777-7-7-7-7-7-7-7-7-7-7/
E/----------------------------------------------------------/

verse
(still, no distortion)
e/------------------/
B/------------------/
G/------------------/
D/------------------/
A/7-----9----5------/
E/5 x12 7 x4-3 x16--/   x3 

before the first chorus, there is a pre chorus...
the pre chorus goes:

(bring in the distortion)
e/----------/
B/----------/
G/----------/
D/5---------/
A/3x12-7-7--/
E/-----5-5--/

and then, the chorus:

e/--------------/
B/--------------/
G/--------------/
D/5----4---7----/
A/3x16-2x8-5x8--/
E/--------------/ x2  

after the second chorus, there is a bridge wich goes:

e/---------------------------------------/
B/---------------------------------------/
G/---------------------------------------/
D/5----7-7-9----7---9---7---5---xx-x-xx--/
A/5----7-7-9----7---9---7---5---xx-x-xx--/
E/3x14-5-5-7x16-5x8-7x8-5x8-3x4-xx-x-xx--/

"solo" 
I don't know wich string it is on, D sounds about right...

e/----------------------------------------------------------/
B/----------------------------------------------------------/
G/----------------------------------------------------------/
D/9-9-9-8-11-9-8-9-9-9-8-11-9-8-14x8-11-9-8-9-8-------------/
A/----------------------------------------------------------/
E/----------------------------------------------------------/

then chorus

outro is:
e/---------------------------------------------/
B/---------------------------------------------/
G/---------------------------------------------/
D/-5-555-5-5-5-5-5-7-777-7-7-7-7-7-9-999-9-----/
A/-3-333-3-3-3-3-3-5-555-5-5-5-5-5-7-777-7x13--/ x4 (last time, there's only
E/---------------------------------------------/ one 9, wich you let ring)
                                                     7 

Well, that's about it be free to mail me with corrections or additions.

website of the Dreams: www.thedreams.dk
Related for The Dreams - Alda tab