Guitaretab - guitar tabs
Song name
# A B C D E F G H I J K L M N O P Q R S T U V W X Y Z

Misc Unsigned Bands - Catpeople - Radio tab

Banda: Catpeople
Canci髇: Radio
El efecto de la guitarra en esta canci髇, es de un ligero delay.

Intro:

e--7---7----12---12---14---14----7--------------------------|
B--7---7----12---12---12---12--------5-------8--------------|
G--7---7----12---12---12---12--------------------7/9--------|
D--7---7----12---12---12---12-------------------------9-----|
A--7--------12---12---12---12-------------------------------|
E-----------------------------------------------------------|

1er verso

e---7--------------------------|
B------5---------8-------------|
G--------------------7/9-------|
D------------------------------|
A------------------------------|
E------------------------------|

Coro: seg鷑 yo, el coro se divide en tres compaces, pero no tengo el primero, asi que
los dos 鷏timos. Y el rasgueo es de arriba hacia abajo repetidas veces.
e---12-------7---|
B---12-------7---|
G---12-------7---|
D---14-------9---|
A----------------|
E----------------|

2do verso
[ Tab from: http://www.guitaretab.com/m/misc-unsigned-bands/114579.html ]
e------------------------------------------------------------|
B-----------8-------------------8--------7-------------7-----|
G--7--9--7-----7----7---9---7-----7-------7𨖷-----7𨖷----|
D------------------------------------------------------------|
A------------------------------------------------------------|
E------------------------------------------------------------|

Despu閟 del segundo coro, viene un estribillo final.

e------------------------------------------------------------|
B------------------------------------------------------------|
G-----------------------------------------7-7----------7-7---|
D------9-7-9---9-9---9-7-9---9-9---9-7-9-------9-7-9---------|
A------------------------------------------------------------|
E------------------------------------------------------------|


e--------------------------|
B---8--7-------------------|
G--------------97---------|
D------------9------9------|
A----------------------10--|
E--------------------------|

A lo largo de la canci髇 se repiten fragmentos del intro, solo es cuesti髇 de escucharla
tener bien los tiempos. Quejas, sugerencias y/o mentadas de madre favor de
mandarlos a ochocuatro@hotmail.com

www.myspace.com/catpeopletheband
Related for Catpeople - Radio tab