Song name
# A B C D E F G H I J K L M N O P Q R S T U V W X Y Z

Misc Unsigned Bands - Metallic Snakes - Venom tab

-------------------------------------------------------------------------------
			     Venom - Metallic Snakes
-------------------------------------------------------------------------------
Tabbed by:Steven Pace
Email:sp2395@steelersfan.net

Tuning:standard

e|---------------------------------------------------------------------------|
B|---------------------------------------------------------------------------|
G|---------------------------------------------------------------------------|
D|---------------------------------------------------------------------------|
A|---2---2---2---2---2---2---2---2---3---3---3---3---3---3---3---3-----------|
E|---0---0---0---0---0---0---0---0---1---1---1---1---1---1---1---1-----------|

e|---------------------------------------------------------------------------|
B|---------------------------------------------------------------------------|
G|---------------------------------------------------------------------------|
D|---------------------------------------------------------------------------|
A|---2---2---2---2---2---2---2---2---5---5---5---5---3---3---3---3-----------|
E|---0---0---0---0---0---0---0---0---3---3---3---3---1---1---1---1-----------|

repeat 4 times

e|---------------------------------------------------------------------------|
B|---------------------------------------------------------------------------|
G|---------------------------------------------------------------------------|
D|---------------------------------------------------------------------------|
A|---2---2---2---2---2---2---2---2---3---3---3---3---3---3---3---3-----------|
E|---0---0---0---0---0---0---0---0---1---1---1---1---1---1---1---1-----------|

e|---------------------------------------------------------------------------|
B|---------------------------------------------------------------------------|
G|---------------------------------------------------------------------------|
D|---------------------------------------------------------------------------|
A|---2---2---2---2---2---2---2---2---5---5---5---5---3---3---3---3-----------|
E|---0---0---0---0---0---0---0---0---3---3---3---3---1---1---1---1-----------|

repeat 2 times
  
e|---16p15-16p15-16p15-16p15-16p15-16p15-16p15-16p15-------------------------|
B|---------------------------------------------------------------------------|
G|---------------------------------------------------------------------------|
D|---------------------------------------------------------------------------|
A|---------------------------------------------------------------------------|
E|---------------------------------------------------------------------------|

e|---17p16-17p16-17p16-17p16-17p16-17p16-17p16-17p16-------------------------|
B|---------------------------------------------------------------------------|
G|---------------------------------------------------------------------------|
D|---------------------------------------------------------------------------|
A|---------------------------------------------------------------------------|
E|---------------------------------------------------------------------------|

e|---16p15-16p15-16p15-16p15-16p15-16p15-16p15-16p15-------------------------|
B|---------------------------------------------------------------------------|
G|---------------------------------------------------------------------------|
D|---------------------------------------------------------------------------|
A|---------------------------------------------------------------------------|
E|---------------------------------------------------------------------------|

e|---19p18-19p18-19p18-19p18-17p16-17p16-17p16-17p16-------------------------|
B|---------------------------------------------------------------------------|
G|---------------------------------------------------------------------------|
D|---------------------------------------------------------------------------|
A|---------------------------------------------------------------------------|
E|---------------------------------------------------------------------------|

repeat 4 times

e|---16---------------16---------------16---------------16-------------------|
B|---------------------------------------------------------------------------|
G|---------------------------------------------------------------------------|
D|---------------------------------------------------------------------------|
A|---------------------------------------------------------------------------|
E|---------------------------------------------------------------------------|

e|---------------------------------------------------------------------------|
B|---------------------------------------------------------------------------|
G|---------------------------------------------------------------------------|
D|---------------------------------------------------------------------------|
A|---2--------------------------------3--------------------------------------|
E|---0--------------------------------1--------------------------------------|

e|---------------------------------------------------------------------------|
B|---------------------------------------------------------------------------|
G|---------------------------------------------------------------------------|
D|---------------------------------------------------------------------------|
A|---2--------------------------------5----------------3---------------------|
E|---0--------------------------------3----------------1---------------------|

repeat 2 times

e|---------------------------------------------------------------------------|
B|---------------------------------------------------------------------------|
G|---------------------------------------------------------------------------|
D|---------------------------------------------------------------------------|
A|---5555555555555554444444444444443333333333333333333333333333332-----------|
E|---3333333333333332222222222222221111111111111111111111111111110-----------|

e|---12p11p9-----------------------------------------------------------------|
B|---------------------------------------------------------------------------|
G|---------------------------------------------------------------------------|
D|---------------------------------------------------------------------------|
A|---------------------------------------------------------------------------|
E|-----------0---------------------------------------------------------------|

| /  slide up
| \  slide down
| h  hammer-on
| p  pull-off
| ~  vibrato
| +  harmonic
| x  Mute note
===============================================================================
Tap to rate this tab
# A B C D E F G H I J K L M N O P Q R S T U V W X Y Z