Song name
# A B C D E F G H I J K L M N O P Q R S T U V W X Y Z

Misc Unsigned Bands - Silent Wreckage - Pain In My Eyes tab

Tuning:Drop C
(Low to High)CGCFAD


Intro:
D|-----------------------------------------------------|
A|-----------------------------------------------------|
F|-----------------------------------------------------|
C|-3x----------5x-----------7x----------8x-------------|
G|-3x----------5x-----------7x----------8x-8--10~------|
C|-3x-33333333-5x-555555-55-7x-77788777-8x-8--10~------|
PM    --------    ------ --    --------    -

D|----------------------------------------------------------------------|
A|----------------------------------------------------------------------|
F|----------------------------------------------------------------------|
C|-10-8-7\-3-----------------5-3/-5--------------------------7------8~--|
G|-10-8-7\-3-----------------5-3/-5--------------------------7------8~--|
C|-10-8-7\-3-333333333333333-5-3/-5-5555555555555555-7-5-8-5-7-7777-8~--|
PM -- - -    --------------- - -    ---------------- - - - -   ----

Verse 
D|---------------------------------------------------------|
A|---------------------------------------------------------|
F|----------------------------------------------*5---------|
C|-7-5-3------------------------------------7-----*5-------|
G|-7-5-3------------------5------7-----8-------------------|
C|-7-5-3-3333333333333333----333---333---33---3------------|
PM - -   ----------------    ---   ---   --   -

Play verse x3

Verse cont.
D|--------------------------------------------------------------------------|
A|--------------------------------------------------------------------------|
F|--------------------------------------------------------------------------|
C|-5------------------------------------------------------------------------|
G|-5--------------7----7h8-----8----8h10-----8----8h12--------12------13p12-|
C|-5-55555555-555---55-----777---77------888---88------101010----1010-------|
PM   -------- ---   --     ---   --      ---   --      ------    ----

Pre-chorus x2 lead
D|---------------------------------------------------------------------|
A|---------------------------------------------------------------------|
F|---------------------------------------------------------------------|
C|---------------------------------------------------------------------|
G|-5h8p5h8p5h8p5--3h7p3h7p3h7p3--8h12p8h12p8h12p8--12-10-8-10----------|
C|---------------------------------------------------------------------|

Rythem x2
D|-----------------------------------------------------------------|
A|-----------------------------------------------------------------|
F|-----------------------------------------------------------------|
C|-5~-------------3~-------------8~------------------------10~-----|
G|-5~-------------3~-------------8~------------------------10~-----|
C|-5~-------------3~-------------8~------------------------10~-----|


chorus
D|-----------------------------------------------------------------------|
A|-----------------------------------------------------------------------|
F|-------------------------------------5/7-7-------------7/9-9/10-10-----|
C|-8-8-8-8-8-8-8-8-----3-3-3-3-3-3-3-3-x-x-x-7-7-7-7-7-7-x-x-x-x--x------|
G|-8-8-8-8-8-8-8-8-12\-3-3-3-3-3-3-3-3-3/5-5-7-7-7-7-7-7-5-7-7-8--8------|
C|-8-8-8-8-8-8-8-8-----3-3-3-3-3-3-3-3-------7-7-7-7-7-7-----------------|

chorus cont.
D|--------------------------------------------------------------------------|
A|--------------------------------------------------------------------------|
F|--------------------------------------------------------------------------|
C|-5-5-5-5-5-5-5-5--8-8x-0-10-10-10-10\-3-3-3-3-3-3------5-----7-----8-10~--|
G|-5-5-5-5-5-5-5-5--8-8x-0-10-10-10-10\-3-3-3-3-3-3------5-----7-----8-10~--|
C|-5-5-5-5-5-5-5-5--8-8x-0-10-10-10-10\-3-3-3-3-3-3--5-5-5-7-7-7-8-8-8-10~--|
PM                                                   - -   - -   - -

Repeat 
Verse x3
Pre-Chorus
Chorus

Bridge lead x2
D|---------------------------------------------------------------------|
A|-----------------15-15-15-17-18-13-13--17-15-13-15--12-13-15---------|
F|-/12-12-12-14-15---------------------------------------------12------|
C|---------------------------------------------------------------------|
G|---------------------------------------------------------------------|
C|---------------------------------------------------------------------|

rythem x2
D|------------------------------------------------|
A|------------------------------------------------|
F|------------------------------------------------|
C|-7-7--7-8-10--5-5--8-7-5--3--3-3--3--3--3-------|
G|-7-7--7-8-10--5-5--8-7-5--3--3-3--3--3--3-------|
C|-7-7--7-8-10--5-5--8-7-5--3--3-3--3--3--3-------|
PM                             - -     -  


Repeat
Chorus

end
D|----------------------------|
A|----------------------------|
F|----------------------------|
C|-7~----8~----5~----3~-------|
G|-8~----10~---7~----3~-------|
C|-7~----8~----5~----3~-------|




Tap to rate this tab
# A B C D E F G H I J K L M N O P Q R S T U V W X Y Z