Song name
# A B C D E F G H I J K L M N O P Q R S T U V W X Y Z

Misc Unsigned Bands - Abandon Jalopy - Instead tab

Abandon Jalopy
Instead

Verse:
Em  G  F

Pre Chorus:

-------------------------------------------------------------------------|
-------1------------1-----------------1------------1--------3------------|
-----2------------0----------0------2------------0--------0--------------|
---2------------2----------0------2------------2--------4----------------|
-0--------0-2-3----------2------0--------0-2-3--------5------------------|
-----------------------3-------------------------------------------------|

Chorus:

-----------------------10-8------------------------10-8------------------|
------------------10-8------------------------10-8-----------------------|
-9-7----------9-7------------9-7----------9-7----------------------------|
-----9-7---4---------------------9-7---4---------------------------------|
---------5---------------------------5-----------------------------------|
-------------------------------------------------------------------------|


If I get around to it, I'll post the solo's later


---------

Abandon Jalopy is
Tap to rate this tab
 
# A B C D E F G H I J K L M N O P Q R S T U V W X Y Z