Song name
# A B C D E F G H I J K L M N O P Q R S T U V W X Y Z

Misc Unsigned Bands - From A Whim - Sleeping Aids And Serenades tab

Title: Sleeping Aids and Serenades
Artist: From A Whim (myspace.com/fromawhim)
Tabbed By: mentalpplrock
Tuning: (high to low) eB-Bb-Gb-Db-Gb-Db

Figured this out by ear. It has weird tuning, but it's still an amazing song.

myspace.com/fromawhim

Verse:
"Lying awake, in my bed..."/"Sleeping aids and serenades fall on me like..."/"Hand in 
eye to eye..."/"Cause I could be him..."

eb|-----------------------------------------------|
Bb|-----------------------------------------------|
Gb|------3--0--------3--1-------3--1--------------|
Db|---1-----------1-----------1-------5--7--5--1--|
Gb|------------------------1----------------------|
Db|-1----------1----------------------------------|

Chorus:
"You were right, and I was wrong..."

Guitar 1:

eb|-------------------------------------------------|
Bb|----9-----9-----8-----8-----6-----6-----9--8--6--|
Gb|-8-----8-----8-----8-----8-----8-----8-----------|
Db|-------------------------------------------------|
Gb|-------------------------------------------------|
Db|-------------------------------------------------|

Guitar 2:

eb|-------------------------------------------------|
Bb|-------------------------------------------------|
Gb|-------5-----------1-----------8-----------3-----|
Db|----5-----5-----1-----1-----8-----8-----3-----3--|
Gb|-5-----------1-----------8-----------3-----------|
Db|-------------------------------------------------|

Bridge:
"Cause I could be him..."

eb|-------------------------------------------------------------------|
Bb|-------------------------------------------------------------------|
Gb|-5-5--5--5-5-5--5--1-1--1--1-1-1--1--8-8--8--8-8-8--8--3-3--3-3-3--|
Db|-5-5--5--5-5-5--5--1-1--1--1-1-1--1--8-8--8--8-8-8--8--3-3--3-3-3--|
Gb|-5-5--5--5-5-5--5--1-1--1--1-1-1--1--8-8--8--8-8-8--8--3-3--3-3-3--|
Db|-------------------------------------------------------------------|
pm  . .     . . .     . .     . . .     . .     . . .     . .

Pre Chorus/Post Bridge

eb-----------------------------------------------------------------------------------------------|
Bb-----------------------------------------------------------------------------------------------|
Gb-5-5--5--5-5-5--5--1-1--1--1-1-1--1--1-1-1--1--1-1-1--1--3-3-3--3--3-3-3--3--3-3-3--3--3-3-3--3|
Db-5-5--5--5-5-5--5--1-1--1--1-1-1--1--1-1-1--1--1-1-1--1--3-3-3--3--3-3-3--3--3-3-3--3--3-3-3--3|
Gb-5-5--5--5-5-5--5--1-1--1--1-1-1--1--1-1-1--1--1-1-1--1--3-3-3--3--3-3-3--3--3-3-3--3--3-3-3--3|
Db-----------------------------------------------------------------------------------------------|
pm . .     . . .     . .     . . .     . . .     . . .     . . .     . . .     . . .     .. .
Tap to rate this tab
# A B C D E F G H I J K L M N O P Q R S T U V W X Y Z