Song name
# A B C D E F G H I J K L M N O P Q R S T U V W X Y Z

Misc Unsigned Bands - Forgotten Promises - The Addiction tab

--------------------------------------------
			     The Addiction - Forgotten Promises
--------------------------------------------
www.myspace.com/forgottenpromisespl

Intro/Chorus x4

C|-------------------------------------------------------------------------|
G|-------------------------------------------------------------------------|
E|-------------------------------------------------------------------------|
B|----5-3-2h3p2-----5-3-2h3p2------10-8-7h8p7---------5--------------------|
F|-------------3-------------3---------------8----5-8---5-8----------------|
B|-0-0-----------3-3------------8-8------------5-5-------------------------|

Post Chorus x2

C|-------------------------------------------------------------------------|
G|-------------------------------------------------------------------------|
E|------5-5-5-5-5------7-7-7-7-7------14-14-14-14-14------12-12-12-10-10---|
B|------x-x-x-x-x------x-x-x-x-x------x--x--x--x--x-------x--x--x--x--x----|
F|-0--0-3-3-3-3-3-5--5-5-5-5-5-5-8--8-12-12-12-12-12-7--7-10-10-10-8--8----|
B|-0--0-----------5--5-----------8--8----------------7--7------------------|

Verse x 4

C|-------------------------------------------------------------------------|
G|-------------------------------------------------------------------------|
E|-------------------------------------------------------------------------|
B|-------------------------------------------------------------------------|
F|0--0-0-0-0----0-00-0-0-0--8--8-8-8-8----8-88-8-8-8-----------------------|
B|0--0-0-0-0----0-00-0-0-0--8--8-8-8-8----8-88-8-8-8-----------------------|


C|-------------------------------------------------------------------------|
G|-------------------------------------------------------------------------|
E|-------------------------------------------------------------------------|
B|-------------------------------------------------------------------------|
F|3--3-3-3-3----3-33-3-3-3--5--5-5-5-5----5-55-5-5-5-----------------------|
B|3--3-3-3-3----3-33-3-3-3--5--5-5-5-5----5-55-5-5-5-----------------------|

End of verse on 4th time through

C|-------------------------------------------------------------------------|
G|-------------------------------------------------------------------------|
E|-------------------------------------------------------------------------|
B|---------------------------------------------2h3p2-----------------------|
F|3--3-3-3-3----3-33-3-3-3--5--5-5-5-5-5-3-3-5------3----------------------|
B|3--3-3-3-3----3-33-3-3-3--5--5-5-5-5-5-3---------------------------------|

Chorus x2

C|-------------------------------------------------------------------------|
G|-------------------------------------------------------------------------|
E|-------------------------------------------------------------------------|
B|----5-3-2h3p2-----5-3-2h3p2------10-8-7h8p7---------5--------------------|
F|-------------3-------------3---------------8----5-8---5-8----------------|
B|-0-0-----------3-3------------8-8------------5-5-------------------------|

Post Chorus x2

C|-------------------------------------------------------------------------|
G|-------------------------------------------------------------------------|
E|------5-5-5-5-5------7-7-7-7-7------14-14-14-14-14------12-12-12-10-10---|
B|------x-x-x-x-x------x-x-x-x-x------x--x--x--x--x-------x--x--x--x--x----|
F|-0--0-3-3-3-3-3-5--5-5-5-5-5-5-8--8-12-12-12-12-12-7--7-10-10-10-8--8----|
B|-0--0-----------5--5-----------8--8----------------7--7------------------|

Verse x 4

C|-------------------------------------------------------------------------|
G|-------------------------------------------------------------------------|
E|-------------------------------------------------------------------------|
B|-------------------------------------------------------------------------|
F|0--0-0-0-0----0-00-0-0-0--8--8-8-8-8----8-88-8-8-8-----------------------|
B|0--0-0-0-0----0-00-0-0-0--8--8-8-8-8----8-88-8-8-8-----------------------|


C|-------------------------------------------------------------------------|
G|-------------------------------------------------------------------------|
E|-------------------------------------------------------------------------|
B|-------------------------------------------------------------------------|
F|3--3-3-3-3----3-33-3-3-3--5--5-5-5-5----5-55-5-5-5-----------------------|
B|3--3-3-3-3----3-33-3-3-3--5--5-5-5-5----5-55-5-5-5-----------------------|

End of verse on 4th time through

C|-------------------------------------------------------------------------|
G|-------------------------------------------------------------------------|
E|-------------------------------------------------------------------------|
B|---------------------------------------------2h3p2-----------------------|
F|3--3-3-3-3----3-33-3-3-3--5--5-5-5-5-5-3-3-5------3----------------------|
B|3--3-3-3-3----3-33-3-3-3--5--5-5-5-5-5-3---------------------------------|

Chorus x2

C|-------------------------------------------------------------------------|
G|-------------------------------------------------------------------------|
E|-------------------------------------------------------------------------|
B|----5-3-2h3p2-----5-3-2h3p2------10-8-7h8p7---------5--------------------|
F|-------------3-------------3---------------8----5-8---5-8----------------|
B|-0-0-----------3-3------------8-8------------5-5-------------------------|

Interlude Pt1

C|-------------------------------------------------------------------------|
G|-------------------------------------------------------------------------|
E|-------------------------------------------------------------------------|
B|-------------------------------------------------------------------------|
F|-3-3-3-3--3-3-3-3--0-0-0-0--0-0-0-0--3-3-3-3--3-3-3-3--0-0-0-0--0-0-0-0--|
B|-3-3-3-3--3-3-3-3--0-0-0-0--0-0-0-0--3-3-3-3--3-3-3-3--0-0-0-0--0-0-0-0--|

Interlude Pt2 x8

C|-----------------------------------------|
G|-----------------------------------------|
E|-----------------------------------------|
B|--------------7h8p7--------------7h8p7---|
F|-3-3-3-3--7-8-------3-3-3-3--7-8---------|
B|-3-3-3-3------------3-3-3-3--------------|

C|-----------------------------------------|
G|-----------------------------------------|
E|-----------------------------------------|
B|-------------7h8p7------------7h8p7------|
F|-0-0-0-0--5-8------0-0-0-0-5-8-----------|
B|-0-0-0-0-----------0-0-0-0---------------|

End of interlude

C|-----|
G|-3---|
E|-2---|
B|-0---|
F|-0---|
B|-0---|

Chorus x 6

C|-------------------------------------------------------------------------|
G|-------------------------------------------------------------------------|
E|-------------------------------------------------------------------------|
B|----5-3-2h3p2-----5-3-2h3p2------10-8-7h8p7---------5--------------------|
F|-------------3-------------3---------------8----5-8---5-8----------------|
B|-0-0-----------3-3------------8-8------------5-5-------------------------|





(madmutilator@hotmail.com)





Tap to rate this tab
# A B C D E F G H I J K L M N O P Q R S T U V W X Y Z