Song name
# A B C D E F G H I J K L M N O P Q R S T U V W X Y Z

Misc Unsigned Bands - Oikawa Rin - Ill Be Your Home Devil May Cry Ending Theme tab

Devil May Cry - I'll Be Your Home (Ending Theme)

Sung by Oikawa Rin

Tabbed By: Francis Louwie Anthony A. Navos
Date: June 27, 2008

Any Comments or suggestions e-mail me at nagz06@yahoo.com


Standard Tuning


Intro: G,C 2x


Verse: G,C 4x; Am7, D

E||----------------------|----------------------|----------------------|
B||------------3---------|------------3---------|------------3---------|
G||-------0---------0----|-------0---------0----|-------0---------0----|
D||----------------------|--4-------------------|----------------------|
A||----------------------|----------------------|--3-------------------|
E||--3-------------------|----------------------|----------------------|


     
-----------------0----|----------------------|----------------------|
------------3---------|------------3---------|------------3---------|
-------0--------------|-------0---------0----|-------0---------0----|
--4-------------------|----------------------|--4-------------------|
----------------------|----------------------|----------------------|
----------------------|--3-------------------|----------------------|


    
----------------------|-------0--------------||
------------3---------|------------3---------||
-------0---------0----|-----------------0----||  X2
----------------------|--4-------------------||
--3-------------------|----------------------||
----------------------|----------------------||


E||----------------------|----------------------|--------------0-----------|
B||------------0h--1-----|------------1---------|--------3-----------3-----|
G||-------------------0--|-----------------0----|-----2-----2-----2-----2--|
D||-------2--------------|-------2--------------|--0-----------------------|
A||--0-------------------|--0-------------------|--------------------------|
E||----------------------|----------------------|--------------------------|


  
----------------------|----------------------|----------------------|--2----||
------------0h--1-----|------------1---------|------------3---------|--3----||
-------------------0--|-----------------0----|-------2---------0----|--2----||
-------2--------------|-------2--------------|--0-------------------|--0----||
--0-------------------|--0-------------------|----------------------|-------||
----------------------|----------------------|----------------------|-------||




Chorus: C, G, D, F, C, Em, Bm-D then C, G, D, F, C, Em, Bm, C

                                                           -Harmonics-
E||----------------------|----------------------|--------|--------7----|
B||------------3---------|------------3---------|--------|---7---------|
G||-------0---------0----|-------0---------0----|--------|-------------|
D||----------------------|--4-------------------|--------|-------------|
A||----------------------|----------------------|--3-----|-------------|
E||--3-------------------|----------------------|--------|-------------|


(Repeat Verse)

(Repaet Chorus Chords)

Bridge: Bm, C, Bm, Am7, D, C, Em, D-Dsus-D7

(Repeat Chorus Chords) 2x


Verse: G,C 4x; Am7, D

Don't look back
Don't regret
Time's falling out of these hands
I'll let you leave me

Chorus: C, G, D, F, C, Em, Bm-D then C, G, D, F, C, Em, Bm, C

Go on,
You know Home is always inside your soul
All the light to bless your way
Don't be afraid
And I'll be your home

Verse 2: G,C 4x; Am7, D

In this time
In this place
This moment is all we have
And tomorrow we never know

Chorus: C, G, D, F, C, Em, Bm-D then C, G, D, F, C, Em, Bm, C

Every precious time
Let it go
Somewhere away
You will learn, And you'll love,
forgive the past and you can move on

Bridge: Bm, C, Bm, Am7, D, C, Em, D-Dsus-D7


All the distance
You've come to a place
Then you see that your home is away
Now the sun is rising
lighting up your sky again brightly

Chorus: C, G, D, F, C, Em, Bm-D then C, G, D, F, C, Em, Bm, C

Every precious time
Let it go
Somewhere away
You will learn, And you'll love,
forgive the past

Go on,
You know Home is always inside your soul
Where ever you go
Whatever you see
I'll be the place
And I'll be your home
Tap to rate this tab
# A B C D E F G H I J K L M N O P Q R S T U V W X Y Z