Song name
# A B C D E F G H I J K L M N O P Q R S T U V W X Y Z

Misc Unsigned Bands - The Devil Theory - The Fight tab

Song Name: “The Fight”
Band Name: Beyond the Black Mist/ Beware / Chaos Von Frankenstein
Album Name: We Are, Beware!
Name of Tabber:Toki Vengeance (Dakota Fletcher)
Tuning: Drop D (D,A,D,G,B,E)


Intro:
E:------------------------------------------------|
B:------------------------------------------------|
G:------------------------------------------------|
D:-3-----2-----6---2h3----------6-----------4-----|
A:-3-----2-----6--------2-4-6-8-6-8-6-4-2---4-----|
D:-3-----2-----6----------------6-----------4-----|


Verse 1:
E:----------------------------------|
B:----------------------------------|
G:-4-----3-----2--------------------|
D:-4-----3-----2---2h4---------4----|
A:-2-----1-----0---------6-5-3-4----|
D:-----------------------------4----|


 Bridge:
E:-------------------------------------------------|
B:-------------------------------------------------|
G:-3-3-------------3-3-------------3-3------2------|
D:-3-3-6-----------3-3-6-----------3-3-6----2------|
A:-1-1-6-----------1-1-6-----------1-1-6----0------|
D:-----6---------------6---------------6-----------|


 Verse 2:
E:---------------------------------|
B:---------------------------------|
G:-3-------------------------------|
D:-3-----4-----5-----5-5-7---------|
A:-1-----4-----5-----5-5-7---------|
D:-------4-----5-----5-5-7---------|


Outro:
E:---------------------|
B:---------------------|
G:-3-3-----------------|
D:-3-3-6---------------|
A:-1-1-6---------------|
D:-----6---------------|


Order:
Intro
Verse 1
Bridge
Verse 2
Outro
Tap to rate this tab
# A B C D E F G H I J K L M N O P Q R S T U V W X Y Z