Guitaretab - guitar tabs
Song name
# A B C D E F G H I J K L M N O P Q R S T U V W X Y Z

Misc Unsigned Bands - The Devil Theory - Irish Rose tab

Song Name: “Irish Rose”
Band Name: Beyond the Black Mist / Beware / Chaos Von Frankenstein
Album Name: We Are, Beware!
Name of Tabber: BtBM Toki_V
Tuning: Drop D, ½ step down (C#,G#,C#,F#,A#,D#)

Intro 1:
D#:----------------------------------------------|
A#:-4-4-4-------------------4-4-4----------------|
F#:-4-4-4---6-8-9-8-6-------4-4-4---8-9-8-6------|
C#:----------------------------------------------|
G#:----------------------------------------------|
C#:----------------------------------------------|

[ Tab from: http://www.guitaretab.com/m/misc-unsigned-bands/114680.html ]
Intro 2:
D#:----------------------------------------------------|
A#:-4-4-4-------------------9-9-9-6-6-6-4-4-4-4--------|
F#:-4-4-4---6-8-9-8-6-------9-9-9-6-6-6-4-4-4-4--------|
C#:----------------------------------------------------|
G#:----------------------------------------------------|
C#:----------------------------------------------------|


Bridge:
D#:--------------------------------------------------------------------------|
A#:-4-4-4----------------4-4-4-----------4-4-4----------9-9-9-6-6-6-4-4-4-4--|
F#:-4-4-4----------------4-4-4-----------4-4-4----------9-9-9-6-6-6-4-4-4-4--|
C#:--------------------------------------------------------------------------|
G#:--------------------------------------------------------------------------|
C#:--------------------------------------------------------------------------|

Order:
Intro 1
Intro 2
Bridge
(repeat this order 5 times)
Related for The Devil Theory - Irish Rose tab
Advertisement will be closed in 10 seconds