Song name
# A B C D E F G H I J K L M N O P Q R S T U V W X Y Z

Misc Unsigned Bands - Donnie J - Just A Rolling Stone tab

-------------------------------------------------------------------------------
Donnie J - Just A Rolling Stone
-------------------------------------------------------------------------------
Tabbed by: Hoa Tran
Email: itzdjsplitz@yahoo.com

Tuning: EADGBe

Beat Count:
  1   2   3   4   1   2   3   4
e|---------------------------------------------------------------------------|
B|--------------------4p2----------------------------------------------------|
G|---5h6---------------------------------------------------------------------|
D|-6----6---6----------------------------------------------------------------|
A|4-------3-------1-----------3----------------------------------------------|
E|---------------------------------------------------------------------------|

| /  slide up
| \  slide down
| h  hammer-on
| p  pull-off
| ~  vibrato
| +  harmonic
| x  Mute note
===============================================================================
this basically plays all thru the song. i have no experience at making tabs as you can tell HA.

www.myspace.com/deejaysplitz
Tap to rate this tab
# A B C D E F G H I J K L M N O P Q R S T U V W X Y Z