Guitaretab - guitar tabs
Song name
# A B C D E F G H I J K L M N O P Q R S T U V W X Y Z

Misc Unsigned Bands - The Hourglass - Walkin Down The Street tab

-------------------------------------------------------------------------------
			     Walking Down the Street - The Hourglass
-------------------------------------------------------------------------------
Tabbed by:the hourglassband co.
Email:N/A guitarist m>g Basiist G>c

Tuning:drop #c
Intro
e|---4-7-6-----2-5----------------------3----------4-------------10---------|
B|---3-6-4-9-----3-6--------------------4-4-------------7-------12--11------|
G|---------x-------7-8-8-----2-4------3---2-3-1-8----9--------9------3------|
D|----------x-----------9---1-3---8--5-----3-3-7-9----0------7--------4-----|
A|-----------x-----------4-2----5--7----------------7---5---5----------4----|
E|------------x-----------5------5--9-------------8------4-3------------6---|
[ Tab from: http://www.guitaretab.com/m/misc-unsigned-bands/114691.html ]
this is where it gets easy:)Pmx x x x x x x x x x x x x x x x x x x x
e|--6-------------------------1-3-5-6-1-3-5-6-1-3-5-6-1-3-5-6-1-3-5-6-------|
B|---7----------------------------------------------------------------------|
G|----8-----4-2-1-3-4-6-8-9-4-----------------------------------------------|
D|-----9---1----------------------------------------------------------------|
A|------0-3-----------------------------------------------------------------|
E|--------------------------------------------------------------------------|
 solo
e|-1111111----------------1-2------7---------------1--------------1---------|
B|--------7777777-------------3---5-8----1--------5-5-----11------x---------|
G|---------------2--0h5---------4-3------0-3------1---7--------7-5-x--------|
D|----------------0h4--0h4-------6-------0---4---6------12----1--4-2x-------|
A|----------------------7------------6------7-4-6-------10---2-3--x---------|
E|-----------------------8------------8------9--------------------5---------|

e|-2---------------------5-----12-----4-------------x-----------------0-----|
B|--7----------------4-5--4---9--11--12---8--------9-x---------------0------|
G|---5--------------7-6-6--5-6-----13----7-9------1---x-------------0-------|
D|----6---2---8---4---------------------6--------6-----7h9-------4h7--------|
A|-----7-6--6--0-1-6-------------------4----7--12---------0h1---2-----------|
E|---------4-7--3----------------------------12--------------4h9------------|
Outro
e|---4-7-6-----2-5----------------------3----------4-------------10---------|
B|---3-6-4-9-----3-6--------------------4-4-------------7-------12--11------|
G|---------x-------7-8-8-----2-4------3---2-3-1-8----9--------9------3------|
D|----------x-----------9---1-3---8--5-----3-3-7-9----0------7--------4-----|
A|-----------x-----------4-2----5--7----------------7---5---5----------4----|
E|------------x-----------5------5--9-------------8------4-3------------6---|


| /  slide up
| \  slide down
| h  hammer-on
| p  pull-off
| ~  vibrato
| +  harmonic
| x  Mute note
===============================================================================
Related for The Hourglass - Walkin Down The Street tab
Advertisement will be closed in 10 seconds