Song name
# A B C D E F G H I J K L M N O P Q R S T U V W X Y Z

Misc Unsigned Bands - At Rest - Cardiac Arrest tab

x2
---------------------------------------------------------------|
---------------------------------------------------------------|
----10-7-9-6---10-7-9-6---10-7-9-6-------12-10-9-10-9-7-9-7-6--|
---------------------------------------------------------------|
---------------------------------------------------------------|
---0-0-0-0----0-0-0-0----0-0-0-0-------------------------------|

-----------------------------------------------------------------|
-----------------------------------------------------------------|
----10-7-9-6---10-7-9-6---10-7-9-6------121212-10-9-10-9-7-9-7-6-|
-----------------------------------------------------------------|
-----------------------------------------------------------------|
---0-0-0-0----0-0-0-0----0-0-0-0---------------------------------|

----------------------------------------------------------------|
----------------------------------------------------------------|
---10-7-9-6---10-7-9-6---10-7-9-6------121212-10-9-10-9-7-9-7-6-|
----------------------------------------------------------------|
----------------------------------------------------------------|
---0-0-0-0---0-0-0-0----0-0-0-0---------------------------------|

cont'd
----------------------------------------------------------------|
----------------------------------------------------------------|
---101010-9-7-9-7-6-7-6-4---------------------------------------|
----------------------------------------------------------------|
----------------------------------------------------------------|
----------------------------------------------------------------|

hope this helps first tab rate/comment
Tap to rate this tab
# A B C D E F G H I J K L M N O P Q R S T U V W X Y Z