Song name
# A B C D E F G H I J K L M N O P Q R S T U V W X Y Z

Misc Unsigned Bands - Brokedown - Labor Day tab

e|------------0-------0--0--0--0--0--0----------------------------------|
B|-----0-----0-0-------0--0--0--0----0----------------------------------|
G|----6-6---6---6-------6--6--6--6---6----------------------------------|
D|---7---7-7-----7------------------------------------------------------|
A|--5-----5-------5-----------------------------------------------------|
E|----------------------------------------------------------------------|

e|---------------------------0----0--00-0-0-----------------------------|
B|-----0----------0----------0----0--00-0-0-----------------------------|
G|---6----------6------------6----6--66-6-6-----------------------------|
D|----7----------7-----------7----7--77-7-7-----------------------------|
A|--5----------5-------------5----5--55-5-5-----------------------------|
E|----------------------------------------------------------------------|

follow that same strumming pattern with these shapes

e|--0---0---0-----------------------------------------------------|
B|--0---0---0-----------------------------------------------------|
G|--6---8---4-----------------------------------------------------|
D|--7---9---5-----------------------------------------------------|
A|--5---7---3-----------------------------------------------------|
E|----------------------------------------------------------------|
Tap to rate this tab
# A B C D E F G H I J K L M N O P Q R S T U V W X Y Z