Song name
# A B C D E F G H I J K L M N O P Q R S T U V W X Y Z

Misc Unsigned Bands - Head On - The Fire Is Lit tab

The Fire Is Lit by Head On
Drop C Tuning

D--------------------------------------------------------------------------|
A--------------------------------------------------------------------------|
F--------------------------------------------------------------------------|
C-----------------------3/5\3--------------------------------3/5\3---------|
G-0-3p0-0-3/5\3-0-3p0-0-------3p0------0-3p0-0-3/5\3-0-3p0-0-------5-4-3-0-|
C-0-3p0-0-------0-3p0-0-----------3p0--0-3p0-0-------0-3p0-0-------5-4-3-0-|

D---------------------------|
A---------------------------|
F---------------------------|
C---------------------------|
G-0-8-8-8-8-8-8-8-10-7-7-7--|
C-0-8-8-8-8-8-8-8-10-7-7-7--|

CHORUS
D----------------------------------|
A----------------------------------|
F----------------------------------|  play 8 times
C----------------------------------|
G-0-3p0-0-3p0-0-3p0-0-3p0-3/5\3p0--|
C-0-3p0-0-3p0-0-3p0-0-3p0----------|

Please comment any corrections or parts i've missed and i'll add them on
Thanx
Tap to rate this tab
 
# A B C D E F G H I J K L M N O P Q R S T U V W X Y Z