Song name
# A B C D E F G H I J K L M N O P Q R S T U V W X Y Z

Misc Unsigned Bands - Beware - Izombie Dv tab

Song Name: “iZombie”   (Demo Version)
Band Name: Beware / Devil Theory
Album Name: We Are, Beware!
Name of Tabber:Toki Vengeance (Dakota Fletcher)
Tuning: Drop D (D,A,D,G,B,E)
[This tab is of my own song. on this song the guitar is more like a bass and vice versa]


Intro 1:
E:------------------------------------------|
B:------------------------------------------|
G:------------------------------------------|
D:-0h3p0-0-0-0-0h3p0-0-0h3p0-0-0------------|
A:-0h3p0-0-0-0-0h3p0-0-0h3p0-0-0------------|
D:-0h3p0-0-0-0-0h3p0-0-0h3p0-0-0------------|

Intro 2:
E:-------------------------------------|
B:-------------------------------------|
G:-------------------------------------|
D:-0h3p0-0-0-0-5-0-0-3-0-0-0-0---------|
A:-0h3p0-0-0-0-5-0-0-3-0-0-0-0---------|
D:-0h3p0-0-0-0-5-0-0-3-0-0-0-0---------|

Verse 1:
E:---------------------------|
B:---------------------------|
G:---------------------------|
D:-0h3p0-0-0-0-0-0-0-0-------|
A:-0h3p0-0-0-0-0-0-0-0-------|
D:-0h3p0-0-0-0-0-0-0-0-------|


Bridge:
E:---------------------|
B:---------------------|
G:---------------------|
D:-5-0-0-3-0-0-0-0-----|
A:-5-0-0-3-0-0-0-0-----|
D:-5-0-0-3-0-0-0-0-----|


Verse 2:
E:---------------------------|
B:---------------------------|
G:---------------------------|
D:-0h3p0-0-0-0-0-0-0-0-------|
A:-0h3p0-0-0-0-0-0-0-0-------|
D:-0h3p0-0-0-0-0-0-0-0-------|


Verse 3:
E:---------------------------|
B:---------------------------|
G:---------------------------|
D:-0h3p0-0-0-0-0-0-0-0-------|
A:-0h3p0-0-0-0-0-0-0-0-------|
D:-0h3p0-0-0-0-0-0-0-0-------|


Outro:
E:-------------------------------------|
B:-------------------------------------|
G:-------------------------------------|
D:-5-0-0-3-0-0------------0------------|
A:-5-0-0-3-0-0------------0------------|
D:-5-0-0-3-0-0-0h3p0-5-3--0------------|


Order:
Intro 1      x4
Intro 2      x4
Verse 1      x4
Bridge       x4
Verse 2      x4
Bridge       x4
Verse 3      x4
Outro
Tap to rate this tab
# A B C D E F G H I J K L M N O P Q R S T U V W X Y Z