Song name
# A B C D E F G H I J K L M N O P Q R S T U V W X Y Z

Misc Unsigned Bands - Beware - Aidragons Fury tab

Song Name:"A.I./Dragon's Fury"
Band Name:Beware / Devil Theory
Album Name:We Are, Beware!
Name of Tabber:Toki Vengeance (Dakota Fletcher)
Tuning: Drop D Unison 6(D,A,D,G,B,B)/ Drop D during intro
[This is a song of my own and is an instrumental song]
[If you like the song please vist www.bewaremisfitstribute.webs.com]


Intro 1:
E:----------------------------------------|
B:----------------------------------------|
G:--------15-----------------15-----------|
D:-----18----18-15-13-----18----15h18p15--|
A:--15-----------------15-----------------|
D:----------------------------------------|


Intro 2:
E:--------15-----------------15-----------|
B:-----18----18-15-13-----18----15h18p15--|
G:--15-----------------15-----------------|
D:----------------------------------------|
A:----------------------------------------|
D:----------------------------------------|


Intro 3:
E:--0/12-----------------------------------|
B:--0/12-----------------------------------|
G:--0/12-----------------------------------|
D:--0/12-----------------------------------|
A:--0/12-----------------------------------|
D:--0/12-----------------------------------|


Verse 1a:
B:-----------------------------------------------------|
B:-----------------------------------------------------|
G:-----------------------------------------------------|
D:--------10-9-8-------9-8-7--------8-7-6-------7-6-4--|
A:--------10-9-8-------9-8-7--------8-7-6-------7-6-4--|
D:--------10-9-8-------9-8-7--------8-7-6-------7-6-4--|


Verse 1b:
B:----------------------------------------------|
B:----------------------------------------------|
G:----------------------------------------------|
D:-------1/7\1---------1/10\1---------1/7\1-----|
A:-------1/7\1---------1/10\1---------1/7\1-----|
D:-------1/7\1---------1/10\1---------1/7\1-----|


Build Up:
B:----------------------------------------------|
B:----------------------------------------------|
G:----------------------------------------------|
D:-2---4-5-6------3---5-6-7----7-7-7-7-7-7-7-7--|
A:-2---4-5-6------3---5-6-7----7-7-7-7-7-7-7-7--|
D:-2---4-5-6------3---5-6-7----7-7-7-7-7-7-7-7--|


Chorus 1a:
B:---11-11-11-11-11-11-11----------------|
B:---11-11-11-11-11-11-11-----14-13-12---|
G:----9--9--9-10-10-10--9-----12-11-10---|
D:---------------------------------------|
A:---------------------------------------|
D:---------------------------------------|


Chorus 1b:
B:---11-11-11-11-11-11-11----------------|
B:---11-11-11-11-11-11-11-----12-13-14---|
G:----9--9--9-10-10-10--9-----10-11-12---|
D:---------------------------------------|
A:---------------------------------------|
D:---------------------------------------|


Pre-Solo:
(Guitar plays nothing during pre solo)

Guitar Solo 1:
(still in the process of tabbing both Guitar Solo 1 and Guitar Solo 2)

Breakdown:
B:---11-11--11-11-11-11----10-10-9-8---|
B:---11-11--11-11-11-11----10-10-9-8---|
G:----9--9---9--9--9--9-----8--8-7-6---|
D:-------------------------------------|
A:-------------------------------------|
D:-------------------------------------|


Guitar Solo 2:
(refer to Guitar Solo 1)

Verse 2:
B:------------------------------------------------|
B:------------------------------------------------|
G:----------15--------------------15--------------|
D:------18-----18--15---------18-----18--15h18p15-|
A:------------------------------------------------|
D:------------------------------------------------|


Outro:
B:---11--11----------10-10-9-8--------11-----|
B:---11--11----------10-10-9-8--------11-----|
G:----9---9-----------8--8-7-6---------9-----|
D:-------------------------------------------|
A:-------------------------------------------|
D:-------------------------------------------|


Order:
Verse 1a     x2
Verse 1b     x3
Build Up
Chorus 1a
Chorus 1b
Pre-Solo
Guitar Solo 1
Chorus 1a
Chorus 1b
Breakdown
Guitar Solo 2
Verse 1b     x2
Verse 2      x2
Outro
Tap to rate this tab
# A B C D E F G H I J K L M N O P Q R S T U V W X Y Z