Song name
# A B C D E F G H I J K L M N O P Q R S T U V W X Y Z

Misc Unsigned Bands - Billy In 4c - Do Not Reply tab

Help us improve GuitareTab! Take a short survey!
This is a song I wrote and transcribed to piano and
saxophone for my newly created band that only consists
of me at the moment- Billy In 4C.

The band name stems from a line in "Dumb and Dumber" with Jim Carrey and Jeff Daniels, 
which Jim Carrey (Lloyd Christmas)
tells Jeff Daniels (Harry) who he sold his
dead bird Petey to.

I'm looking for other players and I want to make
this a serious thing.
If you live in the vicinity of Lincoln or Omaha
or Columbus, Nebraska,
consider doing an awesome thing with your music
and join Billy in 4C.

Enough of that, this song is played in a really odd tuning that somehow fits my offbeat style.

6th string- E
5th string- A
4th string- D
(this is where it changes)
3rd string- E
2nd string- G
1st string- D

Play this and please comment, please enjoy and I'll have a site going to promote the 
in the near future.

Thanks.


Acoustic Guitar Pt. 1

D---------5h7/-2p0---7p5---4~-4p0-----0----*5------------------------------|
G--*5----------------5-----0~-0-------4h5----------------------------------|
E--*5----------------0-----5-~5-------0------------------------------------|
D--*5-----5--/-2-----0----------------5------------------------------------|
A--------------------------------------------------------------------------|
E--------------------------------------------------------------------------|

*= harmonics
/= slide down
p= pull off
~= let ring
h= hammer on


Acoustic Guitar Pt. 2

D-9---------------------10----------------12/10/9/7/9/5---4b--------------|
G---0-------------------------0-----------0--0--0-0-0-0---0---------------|
E-----0---10---8----0---------0---8\10----0--0--0-0-0-0---0---------------|
D-9--------9---0----5---10--------0-------12/10/9/7/9/5---4b--------------|
A-------------------------------------------------------------------------|
E-------------------------------------------------------------------------|

b= bend


Ending

D--2--2--2~-----------|
G--0--0--0~-----------|
E--2--0--0~-----------|
D--0--0--2~-----------|
A--2--2--2~-----------|
E---------------------|

Bridge between Guitar part 1 and 2:


D-----------------------------------|
G--------*12------------------------|
E----*12----------*7----------------|
D-*12----------*5-------------------|
A-----------------------------------|
E-----------------------------------|
Related for Billy In 4c - Do Not Reply tab