Song name
# A B C D E F G H I J K L M N O P Q R S T U V W X Y Z

Misc Unsigned Bands - Random Insanity - This Kid tab

-------------------------------------------------------------------------------
			     THIS KID! - Random Insanity
-------------------------------------------------------------------------------
Tabbed by: Jaxon Cooke
Email: Crazyboy_yamum@hotmail.com

Tuning: Standard

Intro/main Riff.

e|---------------------------------------------------------------|
B|---------------------------------------------------------------|
G|---------------------------------------------------------------|    x4
D|---------------------------------------------------------------|
A|------------------7--5---------------7--5----------------------|
E|------------0--0--------5--7---0--0--------5--3----------------|

Bridge/chorus riff 

e|---------------------------------------------------------------------------|
B|---------------------------------------------------------------------------|
G|---------------------------------------------------------------------------|
D|-----------7-7-7-7-7-7--10-10-10-10-10-10--12-12-12-12-12-12--14-----------|
A|-----------7-7-7-7-7-7--10-10-10-10-10-10--12-12-12-12-12-12--14-----------|
E|-----------5-5-5-5-5-5---8--8--8--8--8--8--10-10-10-10-10-10--12-----------|

Back to main riff x2 then:

e|---------------------------------------------------------------------------|
B|---------------------------------------------------------------------------|
G|---------------------------------------------------------------------------|
D|------------------7--5---------------7--5----------------------------------|
A|------------0--0--------5--7---0--0--------5--3----------------------------|
E|---------------------------------------------------------------------------|

Back to main riff x1

Then Bridge/chorus

Then 2nd riff

e|---------------------------------------------------------------------------|
B|---------------------------------------------------------------------------|
G|---------------------------------------------------------------------------|
D|---------------------------------------------------------------------------|
A|--------------------5h7p0--------------------------------------------------|
E|--------------0-0--------h7--5\3--0----------------------------------------|

e|---------------------------------------------------------------------------|
B|---------------------------------------------------------------------------|
G|---------------------------------------------------------------------------|
D|-------------------------------7-------------------------------------------|
A|--------------------5h7p0------7-------------------------------------------|
E|--------------0-0--------h7----5-------------------------------------------|

Then main riff x1

and finish with

e|---------------------------------------------------------------|
B|---------------------------------------------------------------|
G|---------------------------------------------------------------|    
D|-------------------------------------------5/7\5---------------|
A|------------------7--5---------------7--5--5/7\5---------------|
E|------------0--0--------5--7---0--0--------3/5\3---------------|



| /  slide up
| \  slide down
| h  hammer-on
| p  pull-off
| ~  vibrato
| +  harmonic
| x  Mute note
Tap to rate this tab
# A B C D E F G H I J K L M N O P Q R S T U V W X Y Z