Song name
# A B C D E F G H I J K L M N O P Q R S T U V W X Y Z

Misc Unsigned Bands - Putrefying Cadaverment - Defiled Beyond Recognition tab

tuning: Drop A
(): Harmonic
this is 100% right Blake gave it to me
www.myspace.com/putrefyingcadaverment

RIFF #1 (repeat 4x)
---------------------------------------------------------------|
---------------------------------------------------------------|
---------------------------------------------------------------|
---2--1--2--1---3---2---1---2----1--2--1--2---3--2--1----------|
---2--1--2--1---3---2---1---2----1--2--1--2---3--2--1--(3)-----|
---2--1--2--1-------2---1---2----1--2--1--2------2--1----------|


------------------------------------------------------------|
------------------------------------------------------------|
------------------------------------------------------------|
---2--1--2--1--3---2--1--2----------------------------------|
---2--1--2--1--3---2--1--2-------------44443333-------------|
---2--1--2--1------2--1--2---11114444-----------------------|


RIFF #2 (repeat 4x)
-----------------------------------------|
-----------------------------------------|
-----------------------------------------|
-3----2----1----2------3--2--1--2--------|
-3----2----1----2------3--2--1--2--------|
-3----2----1----2------3--2--1--2--(3)---|

-----------------------------------------|
-----------------------------------------|
-----------------------------------(3)---|
-3----2----1----2------3--2--1--2--------|
-3----2----1----2------3--2--1--2--------|
-3----2----1----2------3--2--1--2--------|


RIFF #3 (repeat 4x)
-----------------------------------|
-----------------------------------|
-----------------------------------|
-1---------2--------1--------2-----|
-1---------2--------1--------2-----|
-1---------2--------1--------2-----|

-------------------------------------------|
-------------------------------------------|
-------------------------------------------|
-1---------2--------1-------3---4---5---4--|
-1---------2--------1-------3---4---5---4--|
-1---------2--------1-----------4----------|
Tap to rate this tab
 
# A B C D E F G H I J K L M N O P Q R S T U V W X Y Z