Song name
# A B C D E F G H I J K L M N O P Q R S T U V W X Y Z

Misc Unsigned Bands - Katelyn Autry - Breakthrough tab

Artist: Katelyn Autry (AffairWthGravity)
Song: Breakthrough



This is Katelyn Austry's tab 99% sure. Listen to the song and play.
By the way, it's my first tab,I love this song and the the singer of course!
Enjoy it!
darianaome@hotmail.fr    

(Capo on 3th Fret)


Verse
|----------------------------------------------------------------|
|----------------------------------------------------------------|
|----------0----------------0------------0-----------------------|
|-------9-----9----------5-----5-------7----7--------5-----4-----|repeat 
|----7---------------0h3-------------5---------------------------|
|-------------------------------------------------3-----2--------|


Chorus
|----------------------------------------------------------------|
|----------------------------------------------------------------|
|----------0------------0------------0-----------0---------------|
|-------4-----4------4-----4------5-----5-----5-----5------------|repeat
|----2------------2------------3-----------3---------------------|
|----------------------------------------------------------------|


Bridge
|----------------------------------------------------------------|
|----------------------------------------------------------------|
|--------0-----------0----------0-------------0h2p0--------------|
|------2----2-----2-----2----2-----2-------2---------------------|repeat 
|----0---------0----------0-----------0h2------------------------|
|----------------------------------------------------------------|
Tap to rate this tab
 
# A B C D E F G H I J K L M N O P Q R S T U V W X Y Z